  0
SECTION
  2
HEADER
  9
$ACADVER
  1
AC1009
  9
$DWGCODEPAGE
  3
ansi_1252
  9
$INSBASE
 10
0.0
 20
0.0
 30
0.0
  9
$EXTMIN
 10
0.0
 20
-200.0
 30
0.0
  9
$EXTMAX
 10
1900.0
 20
200.0
 30
0.0
  9
$LIMMIN
 10
0.0
 20
0.0
  9
$LIMMAX
 10
420.0
 20
297.0
  9
$ORTHOMODE
 70
     0
  9
$REGENMODE
 70
     1
  9
$FILLMODE
 70
     1
  9
$QTEXTMODE
 70
     0
  9
$MIRRTEXT
 70
     0
  9
$DRAGMODE
 70
     2
  9
$LTSCALE
 40
1.0
  9
$OSMODE
 70
    37
  9
$ATTMODE
 70
     1
  9
$TEXTSIZE
 40
100.0
  9
$TRACEWID
 40
1.0
  9
$TEXTSTYLE
  7
STANDARD
  9
$CLAYER
  8
0
  9
$CELTYPE
  6
BYLAYER
  9
$CECOLOR
 62
   256
  9
$DIMSCALE
 40
1.0
  9
$DIMASZ
 40
2.5
  9
$DIMEXO
 40
0.625
  9
$DIMDLI
 40
3.75
  9
$DIMRND
 40
0.0
  9
$DIMDLE
 40
0.0
  9
$DIMEXE
 40
1.25
  9
$DIMTP
 40
0.0
  9
$DIMTM
 40
0.0
  9
$DIMTXT
 40
2.5
  9
$DIMCEN
 40
2.5
  9
$DIMTSZ
 40
0.0
  9
$DIMTOL
 70
     0
  9
$DIMLIM
 70
     0
  9
$DIMTIH
 70
     0
  9
$DIMTOH
 70
     0
  9
$DIMSE1
 70
     0
  9
$DIMSE2
 70
     0
  9
$DIMTAD
 70
     1
  9
$DIMZIN
 70
     8
  9
$DIMBLK
  1

  9
$DIMASO
 70
     1
  9
$DIMSHO
 70
     1
  9
$DIMPOST
  1

  9
$DIMAPOST
  1

  9
$DIMALT
 70
     0
  9
$DIMALTD
 70
     3
  9
$DIMALTF
 40
0.03937007874016
  9
$DIMLFAC
 40
1.0
  9
$DIMTOFL
 70
     1
  9
$DIMTVP
 40
0.0
  9
$DIMTIX
 70
     0
  9
$DIMSOXD
 70
     0
  9
$DIMSAH
 70
     0
  9
$DIMBLK1
  1

  9
$DIMBLK2
  1

  9
$DIMSTYLE
  2
ISO-25
  9
$DIMCLRD
 70
     0
  9
$DIMCLRE
 70
     0
  9
$DIMCLRT
 70
     0
  9
$DIMTFAC
 40
1.0
  9
$DIMGAP
 40
0.625
  9
$LUNITS
 70
     2
  9
$LUPREC
 70
     4
  9
$SKETCHINC
 40
1.0
  9
$FILLETRAD
 40
0.0
  9
$AUNITS
 70
     0
  9
$AUPREC
 70
     0
  9
$MENU
  1
.
  9
$ELEVATION
 40
0.0
  9
$PELEVATION
 40
0.0
  9
$THICKNESS
 40
0.0
  9
$LIMCHECK
 70
     0
  9
$CHAMFERA
 40
0.0
  9
$CHAMFERB
 40
0.0
  9
$SKPOLY
 70
     0
  9
$TDCREATE
 40
2453353.800459155
  9
$TDUPDATE
 40
2456426.153188148
  9
$TDINDWG
 40
9791572.06217926
  9
$TDUSRTIMER
 40
9791572.06217926
  9
$USRTIMER
 70
     1
  9
$ANGBASE
 50
0.0
  9
$ANGDIR
 70
     0
  9
$PDMODE
 70
     0
  9
$PDSIZE
 40
0.0
  9
$PLINEWID
 40
9.0
  9
$COORDS
 70
     1
  9
$SPLFRAME
 70
     0
  9
$SPLINETYPE
 70
     6
  9
$SPLINESEGS
 70
     8
  9
$ATTDIA
 70
     0
  9
$ATTREQ
 70
     1
  9
$HANDLING
 70
     1
  9
$HANDSEED
  5
175
  9
$SURFTAB1
 70
     6
  9
$SURFTAB2
 70
     6
  9
$SURFTYPE
 70
     6
  9
$SURFU
 70
     6
  9
$SURFV
 70
     6
  9
$UCSNAME
  2

  9
$UCSORG
 10
0.0
 20
0.0
 30
0.0
  9
$UCSXDIR
 10
1.0
 20
0.0
 30
0.0
  9
$UCSYDIR
 10
0.0
 20
1.0
 30
0.0
  9
$PUCSNAME
  2

  9
$PUCSORG
 10
0.0
 20
0.0
 30
0.0
  9
$PUCSXDIR
 10
1.0
 20
0.0
 30
0.0
  9
$PUCSYDIR
 10
0.0
 20
1.0
 30
0.0
  9
$USERI1
 70
     0
  9
$USERI2
 70
     0
  9
$USERI3
 70
     0
  9
$USERI4
 70
     0
  9
$USERI5
 70
     0
  9
$USERR1
 40
0.0
  9
$USERR2
 40
0.0
  9
$USERR3
 40
0.0
  9
$USERR4
 40
0.0
  9
$USERR5
 40
0.0
  9
$WORLDVIEW
 70
     1
  9
$SHADEDGE
 70
     3
  9
$SHADEDIF
 70
    70
  9
$TILEMODE
 70
     1
  9
$MAXACTVP
 70
    64
  9
$PLIMCHECK
 70
     0
  9
$PEXTMIN
 10
1.000000000000000E+20
 20
1.000000000000000E+20
 30
1.000000000000000E+20
  9
$PEXTMAX
 10
-1.000000000000000E+20
 20
-1.000000000000000E+20
 30
-1.000000000000000E+20
  9
$PLIMMIN
 10
0.0
 20
0.0
  9
$PLIMMAX
 10
420.0
 20
297.0
  9
$UNITMODE
 70
     0
  9
$VISRETAIN
 70
     1
  9
$PLINEGEN
 70
     0
  9
$PSLTSCALE
 70
     1
  0
ENDSEC
  0
SECTION
  2
TABLES
  0
TABLE
  2
VPORT
 70
     1
  0
VPORT
  2
*ACTIVE
 70
     0
 10
0.0
 20
0.0
 11
1.0
 21
1.0
 12
864.5608308954518
 22
-199.2886709484371
 13
0.0
 23
0.0
 14
10.0
 24
10.0
 15
10.0
 25
10.0
 16
0.0
 26
0.0
 36
1.0
 17
0.0
 27
0.0
 37
0.0
 40
1570.07584583577
 41
1.664827586206897
 42
50.0
 43
0.0
 44
0.0
 50
0.0
 51
0.0
 71
    16
 72
  1000
 73
     1
 74
     1
 75
     0
 76
     0
 77
     0
 78
     0
  0
ENDTAB
  0
TABLE
  2
LTYPE
 70
     1
  0
LTYPE
  2
CONTINUOUS
 70
     0
  3
Solid line
 72
    65
 73
     0
 40
0.0
  0
ENDTAB
  0
TABLE
  2
LAYER
 70
     1
  0
LAYER
  2
0
 70
     0
 62
     7
  6
CONTINUOUS
  0
ENDTAB
  0
TABLE
  2
STYLE
 70
     1
  0
STYLE
  2
STANDARD
 70
     0
 40
0.0
 41
1.0
 50
0.0
 71
     0
 42
2.5
  3
txt
  4

  0
ENDTAB
  0
TABLE
  2
VIEW
 70
     0
  0
ENDTAB
  0
TABLE
  2
UCS
 70
     0
  0
ENDTAB
  0
TABLE
  2
APPID
 70
     1
  0
APPID
  2
ACAD
 70
     0
  0
ENDTAB
  0
TABLE
  2
DIMSTYLE
 70
     2
  0
DIMSTYLE
  2
STANDARD
 70
     0
  3

  4

  5

  6

  7

 40
1.0
 41
0.18
 42
0.0625
 43
0.38
 44
0.18
 45
0.0
 46
0.0
 47
0.0
 48
0.0
140
0.18
141
0.09
142
0.0
143
25.4
144
1.0
145
0.0
146
1.0
147
0.09
 71
     0
 72
     0
 73
     1
 74
     1
 75
     0
 76
     0
 77
     0
 78
     0
170
     0
171
     2
172
     0
173
     0
174
     0
175
     0
176
     0
177
     0
178
     0
  0
DIMSTYLE
  2
ISO-25
 70
     0
  3

  4

  5

  6

  7

 40
1.0
 41
2.5
 42
0.625
 43
3.75
 44
1.25
 45
0.0
 46
0.0
 47
0.0
 48
0.0
140
2.5
141
2.5
142
0.0
143
0.03937007874016
144
1.0
145
0.0
146
1.0
147
0.625
 71
     0
 72
     0
 73
     0
 74
     0
 75
     0
 76
     0
 77
     1
 78
     8
170
     0
171
     3
172
     1
173
     0
174
     0
175
     0
176
     0
177
     0
178
     0
  0
ENDTAB
  0
ENDSEC
  0
SECTION
  2
BLOCKS
  0
BLOCK
  8
0
  2
$MODEL_SPACE
 70
     0
 10
0.0
 20
0.0
 30
0.0
  3
$MODEL_SPACE
  1

  0
ENDBLK
  5
21
  8
0
  0
BLOCK
 67
     1
  8
0
  2
$PAPER_SPACE
 70
     0
 10
0.0
 20
0.0
 30
0.0
  3
$PAPER_SPACE
  1

  0
ENDBLK
  5
76
 67
     1
  8
0
  0
BLOCK
  8
0
  2
DAHRUM
 70
     0
 10
0.0
 20
0.0
 30
0.0
  3
DAHRUM
  1

  0
POLYLINE
  5
F3
  8
0
 66
     1
 10
0.0
 20
0.0
 30
0.0
 70
     1
  0
VERTEX
  5
12B
  8
0
 10
0.0
 20
-200.0
 30
0.0
  0
VERTEX
  5
12C
  8
0
 10
1000.0
 20
-200.0
 30
0.0
  0
VERTEX
  5
12D
  8
0
 10
1000.0
 20
200.0
 30
0.0
  0
VERTEX
  5
12E
  8
0
 10
0.0
 20
200.0
 30
0.0
  0
SEQEND
  5
12A
  8
0
  0
POLYLINE
  5
F4
  8
0
 66
     1
 10
0.0
 20
0.0
 30
0.0
 70
     1
  0
VERTEX
  5
130
  8
0
 10
1000.0
 20
-200.0
 30
0.0
  0
VERTEX
  5
131
  8
0
 10
1900.0
 20
-200.0
 30
0.0
  0
VERTEX
  5
132
  8
0
 10
1900.0
 20
200.0
 30
0.0
  0
VERTEX
  5
133
  8
0
 10
1000.0
 20
200.0
 30
0.0
  0
SEQEND
  5
12F
  8
0
  0
POLYLINE
  5
F5
  8
0
 66
     1
 10
0.0
 20
0.0
 30
0.0
 40
9.0
 41
9.0
  0
VERTEX
  5
135
  8
0
 10
0.0
 20
0.0
 30
0.0
  0
VERTEX
  5
136
  8
0
 10
1900.0
 20
0.0
 30
0.0
  0
SEQEND
  5
134
  8
0
  0
LINE
  5
F6
  8
0
 10
1180.0
 20
-65.34416480410766
 30
0.0
 11
1180.0
 21
-25.34416480410766
 31
0.0
  0
LINE
  5
F7
  8
0
 10
1860.0
 20
-25.34416480410766
 30
0.0
 11
1180.0
 21
-25.34416480410766
 31
0.0
  0
LINE
  5
F8
  8
0
 10
1000.0
 20
50.0
 30
0.0
 11
1360.0
 21
50.0
 31
0.0
  0
LINE
  5
F9
  8
0
 10
1000.0
 20
50.0
 30
0.0
 11
700.0
 21
50.0
 31
0.0
  0
POLYLINE
  5
FA
  8
0
 66
     1
 10
0.0
 20
0.0
 30
0.0
 40
9.0
 41
9.0
  0
VERTEX
  5
138
  8
0
 10
1000.0
 20
105.3441648041077
 30
0.0
  0
VERTEX
  5
139
  8
0
 10
1168.447724411154
 20
105.3441648041077
 30
0.0
  0
SEQEND
  5
137
  8
0
  0
POLYLINE
  5
FB
  8
0
 66
     1
 10
0.0
 20
0.0
 30
0.0
 40
9.0
 41
9.0
  0
VERTEX
  5
13B
  8
0
 10
1168.447724411154
 20
105.3441648041077
 30
0.0
  0
VERTEX
  5
13C
  8
0
 10
1765.884171067502
 20
0.0
 30
0.0
  0
SEQEND
  5
13A
  8
0
  0
POLYLINE
  5
FC
  8
0
 66
     1
 10
0.0
 20
0.0
 30
0.0
 40
9.0
 41
9.0
  0
VERTEX
  5
13E
  8
0
 10
1000.0
 20
75.34416480410766
 30
0.0
  0
VERTEX
  5
13F
  8
0
 10
1338.586178999686
 20
75.34416480410766
 30
0.0
  0
SEQEND
  5
13D
  8
0
  0
POLYLINE
  5
FD
  8
0
 66
     1
 10
0.0
 20
0.0
 30
0.0
 40
9.0
 41
9.0
  0
VERTEX
  5
141
  8
0
 10
213.4666984159376
 20
0.0
 30
0.0
  0
VERTEX
  5
142
  8
0
 10
810.9031450722852
 20
105.3441648041077
 30
0.0
  0
SEQEND
  5
140
  8
0
  0
POLYLINE
  5
FE
  8
0
 66
     1
 10
0.0
 20
0.0
 30
0.0
 40
9.0
 41
9.0
  0
VERTEX
  5
144
  8
0
 10
810.9031450722852
 20
105.3441648041077
 30
0.0
  0
VERTEX
  5
145
  8
0
 10
1000.0
 20
105.3441648041077
 30
0.0
  0
SEQEND
  5
143
  8
0
  0
POLYLINE
  5
FF
  8
0
 66
     1
 10
0.0
 20
0.0
 30
0.0
 40
9.0
 41
9.0
  0
VERTEX
  5
147
  8
0
 10
1000.0
 20
75.34416480410766
 30
0.0
  0
VERTEX
  5
148
  8
0
 10
640.7646904837538
 20
75.34416480410766
 30
0.0
  0
SEQEND
  5
146
  8
0
  0
POLYLINE
  5
100
  8
0
 66
     1
 10
0.0
 20
0.0
 30
0.0
 40
9.0
 41
9.0
  0
VERTEX
  5
14A
  8
0
 10
640.7646904837538
 20
75.34416480410766
 30
0.0
  0
VERTEX
  5
14B
  8
0
 10
51.96677622472465
 20
75.34416480410766
 30
0.0
  0
SEQEND
  5
149
  8
0
  0
POLYLINE
  5
101
  8
0
 66
     1
 10
0.0
 20
0.0
 30
0.0
 40
9.0
 41
9.0
  0
VERTEX
  5
14D
  8
0
 10
1218.740916494302
 20
96.47611809389531
 30
0.0
  0
VERTEX
  5
14E
  8
0
 10
1630.472308436552
 20
96.47611809389531
 30
0.0
  0
SEQEND
  5
14C
  8
0
  0
LINE
  5
102
  8
0
 10
1360.0
 20
50.0
 30
0.0
 11
1360.0
 21
24.12500407250039
 31
0.0
  0
LINE
  5
103
  8
0
 10
1860.0
 20
-65.34416480410766
 30
0.0
 11
1860.0
 21
-25.34416480410766
 31
0.0
  0
LINE
  5
104
  8
0
 10
700.0
 20
50.0
 30
0.0
 11
700.0
 21
24.12500407250039
 31
0.0
  0
POLYLINE
  5
105
  8
0
 66
     1
 10
0.0
 20
0.0
 30
0.0
 70
     1
  0
VERTEX
  5
150
  8
0
 10
1630.472308436552
 20
62.48413066312702
 30
0.0
  0
VERTEX
  5
151
  8
0
 10
1823.497576201418
 20
62.48413066312702
 30
0.0
  0
VERTEX
  5
152
  8
0
 10
1823.497576201418
 20
130.4681055246636
 30
0.0
  0
VERTEX
  5
153
  8
0
 10
1630.472308436552
 20
130.4681055246636
 30
0.0
  0
SEQEND
  5
14F
  8
0
  0
POLYLINE
  5
106
  8
0
 66
     1
 10
0.0
 20
0.0
 30
0.0
 40
9.0
 41
9.0
  0
VERTEX
  5
155
  8
0
 10
905.4515725361426
 20
105.3441648041077
 30
0.0
  0
VERTEX
  5
156
  8
0
 10
539.0640251633639
 20
169.9481748015294
 30
0.0
  0
VERTEX
  5
157
  8
0
 10
52.1130158388013
 20
169.9481748015294
 30
0.0
  0
SEQEND
  5
154
  8
0
  0
POLYLINE
  5
107
  8
0
 66
     1
 10
0.0
 20
0.0
 30
0.0
 40
9.0
 41
9.0
  0
VERTEX
  5
159
  8
0
 10
52.1130158388013
 20
180.3743549156616
 30
0.0
  0
VERTEX
  5
15A
  8
0
 10
52.1130158388013
 20
158.0325403853784
 30
0.0
  0
SEQEND
  5
158
  8
0
  0
POLYLINE
  5
108
  8
0
 66
     1
 10
0.0
 20
0.0
 30
0.0
 40
9.0
 41
9.0
  0
VERTEX
  5
15C
  8
0
 10
51.96677622472465
 20
85.7703449182398
 30
0.0
  0
VERTEX
  5
15D
  8
0
 10
51.96677622472465
 20
63.42853038795664
 30
0.0
  0
SEQEND
  5
15B
  8
0
  0
POLYLINE
  5
109
  8
0
 66
     1
 10
0.0
 20
0.0
 30
0.0
 40
9.0
 41
9.0
  0
VERTEX
  5
15F
  8
0
 10
346.972870334924
 20
-35.77539978124156
 30
0.0
  0
VERTEX
  5
160
  8
0
 10
93.96308818587531
 20
-74.1038483171024
 30
0.0
  0
SEQEND
  5
15E
  8
0
  0
POLYLINE
  5
10A
  8
0
 66
     1
 10
0.0
 20
0.0
 30
0.0
 40
9.0
 41
9.0
  0
VERTEX
  5
162
  8
0
 10
1000.0
 20
-35.77539978124156
 30
0.0
  0
VERTEX
  5
163
  8
0
 10
1172.96796921506
 20
-35.77539978124156
 30
0.0
  0
SEQEND
  5
161
  8
0
  0
POLYLINE
  5
10B
  8
0
 66
     1
 10
0.0
 20
0.0
 30
0.0
 40
9.0
 41
9.0
  0
VERTEX
  5
165
  8
0
 10
346.972870334924
 20
-35.77539978124156
 30
0.0
  0
VERTEX
  5
166
  8
0
 10
1000.0
 20
-35.77539978124156
 30
0.0
  0
SEQEND
  5
164
  8
0
  0
POLYLINE
  5
10C
  8
0
 66
     1
 10
0.0
 20
0.0
 30
0.0
 40
9.0
 41
9.0
  0
VERTEX
  5
168
  8
0
 10
460.8860470272304
 20
-35.77539978124156
 30
0.0
  0
VERTEX
  5
169
  8
0
 10
257.9936726583196
 20
0.0
 30
0.0
  0
SEQEND
  5
167
  8
0
  0
LINE
  5
10D
  8
0
 10
97.28516258037197
 20
-96.27846836430831
 30
0.0
 11
248.5661158735245
 21
-73.36091876009286
 31
0.0
  0
LINE
  5
10E
  8
0
 10
97.28516258037197
 20
-96.27846836430831
 30
0.0
 11
89.32205376053884
 21
-43.71321971224981
 31
0.0
  0
LINE
  5
10F
  8
0
 10
89.32205376053884
 20
-43.71321971224981
 30
0.0
 11
66.24682576602106
 21
-47.20888569452438
 31
0.0
  0
POLYLINE
  5
110
  8
0
 66
     1
 10
0.0
 20
0.0
 30
0.0
 70
     1
  0
VERTEX
  5
16B
  8
0
 10
1008.398009479756
 20
-54.54964459589547
 30
0.0
  0
VERTEX
  5
16C
  8
0
 10
1139.710500111767
 20
-54.54964459589547
 30
0.0
  0
VERTEX
  5
16D
  8
0
 10
1139.710500111767
 20
-107.3525508817833
 30
0.0
  0
VERTEX
  5
16E
  8
0
 10
1008.398009479756
 20
-107.3525508817833
 30
0.0
  0
SEQEND
  5
16A
  8
0
  0
LINE
  5
111
  8
0
 10
1008.398009479756
 20
-80.95109773883939
 30
0.0
 11
1139.710500111767
 21
-80.95109773883939
 31
0.0
  0
TEXT
  5
112
  8
0
 10
334.079582204705
 20
-163.6241239383639
 30
0.0
 40
100.0
  1
Dahrum
  0
POLYLINE
  5
113
  8
0
 66
     1
 10
0.0
 20
0.0
 30
0.0
 40
9.0
 41
9.0
  0
VERTEX
  5
170
  8
0
 10
1572.58572008893
 20
34.08373223667486
 30
0.0
  0
VERTEX
  5
171
  8
0
 10
1870.355215462562
 20
34.08373223667486
 30
0.0
  0
SEQEND
  5
16F
  8
0
  0
POLYLINE
  5
114
  8
0
 66
     1
 10
0.0
 20
0.0
 30
0.0
 40
9.0
 41
9.0
  0
VERTEX
  5
173
  8
0
 10
1870.355215462562
 20
44.509912350807
 30
0.0
  0
VERTEX
  5
174
  8
0
 10
1870.355215462562
 20
22.16809782052384
 30
0.0
  0
SEQEND
  5
172
  8
0
  0
LINE
  5
115
  8
0
 10
256.5292246933577
 20
-125.9261674121514
 30
0.0
 11
248.5661158735245
 21
-73.36091876009286
 31
0.0
  0
LINE
  5
116
  8
0
 10
105.2482714002051
 20
-148.8437170163668
 30
0.0
 11
256.5292246933577
 21
-125.9261674121514
 31
0.0
  0
ENDBLK
  5
120
  8
0
  0
ENDSEC
  0
SECTION
  2
ENTITIES
  0
INSERT
  5
119
  8
0
  2
DAHRUM
 10
0.0
 20
0.0
 30
0.0
  0
ENDSEC
  0
EOF
