  0
SECTION
  2
HEADER
  9
$ACADVER
  1
AC1009
  9
$DWGCODEPAGE
  3
ansi_1252
  9
$INSBASE
 10
0.0
 20
0.0
 30
0.0
  9
$EXTMIN
 10
-17.20000000000005
 20
-900.0
 30
0.0
  9
$EXTMAX
 10
3879.2
 20
700.1335720770785
 30
0.0
  9
$LIMMIN
 10
0.0
 20
0.0
  9
$LIMMAX
 10
12.0
 20
9.0
  9
$ORTHOMODE
 70
     0
  9
$REGENMODE
 70
     1
  9
$FILLMODE
 70
     1
  9
$QTEXTMODE
 70
     0
  9
$MIRRTEXT
 70
     1
  9
$DRAGMODE
 70
     2
  9
$LTSCALE
 40
1.0
  9
$OSMODE
 70
    37
  9
$ATTMODE
 70
     1
  9
$TEXTSIZE
 40
50.0
  9
$TRACEWID
 40
0.05
  9
$TEXTSTYLE
  7
STANDARD
  9
$CLAYER
  8
0
  9
$CELTYPE
  6
BYBLOCK
  9
$CECOLOR
 62
   256
  9
$DIMSCALE
 40
1.0
  9
$DIMASZ
 40
30.0
  9
$DIMEXO
 40
0.0625
  9
$DIMDLI
 40
0.38
  9
$DIMRND
 40
0.0
  9
$DIMDLE
 40
0.0
  9
$DIMEXE
 40
0.18
  9
$DIMTP
 40
0.0
  9
$DIMTM
 40
0.0
  9
$DIMTXT
 40
25.0
  9
$DIMCEN
 40
0.09
  9
$DIMTSZ
 40
0.0
  9
$DIMTOL
 70
     0
  9
$DIMLIM
 70
     0
  9
$DIMTIH
 70
     1
  9
$DIMTOH
 70
     1
  9
$DIMSE1
 70
     0
  9
$DIMSE2
 70
     0
  9
$DIMTAD
 70
     0
  9
$DIMZIN
 70
     0
  9
$DIMBLK
  1

  9
$DIMASO
 70
     1
  9
$DIMSHO
 70
     1
  9
$DIMPOST
  1

  9
$DIMAPOST
  1

  9
$DIMALT
 70
     0
  9
$DIMALTD
 70
     2
  9
$DIMALTF
 40
25.4
  9
$DIMLFAC
 40
1.0
  9
$DIMTOFL
 70
     0
  9
$DIMTVP
 40
0.0
  9
$DIMTIX
 70
     0
  9
$DIMSOXD
 70
     0
  9
$DIMSAH
 70
     0
  9
$DIMBLK1
  1

  9
$DIMBLK2
  1

  9
$DIMSTYLE
  2
STANDARD
  9
$DIMCLRD
 70
     0
  9
$DIMCLRE
 70
     0
  9
$DIMCLRT
 70
     0
  9
$DIMTFAC
 40
1.0
  9
$DIMGAP
 40
0.09
  9
$LUNITS
 70
     2
  9
$LUPREC
 70
     4
  9
$SKETCHINC
 40
0.1
  9
$FILLETRAD
 40
0.5
  9
$AUNITS
 70
     0
  9
$AUPREC
 70
     0
  9
$MENU
  1
.
  9
$ELEVATION
 40
0.0
  9
$PELEVATION
 40
0.0
  9
$THICKNESS
 40
0.0
  9
$LIMCHECK
 70
     0
  9
$CHAMFERA
 40
0.5
  9
$CHAMFERB
 40
0.5
  9
$SKPOLY
 70
     0
  9
$TDCREATE
 40
2453353.800459144
  9
$TDUPDATE
 40
2456154.458799016
  9
$TDINDWG
 40
4881704.084169873
  9
$TDUSRTIMER
 40
4881704.084169873
  9
$USRTIMER
 70
     1
  9
$ANGBASE
 50
0.0
  9
$ANGDIR
 70
     0
  9
$PDMODE
 70
     0
  9
$PDSIZE
 40
0.0
  9
$PLINEWID
 40
9.0
  9
$COORDS
 70
     1
  9
$SPLFRAME
 70
     0
  9
$SPLINETYPE
 70
     6
  9
$SPLINESEGS
 70
     8
  9
$ATTDIA
 70
     0
  9
$ATTREQ
 70
     1
  9
$HANDLING
 70
     1
  9
$HANDSEED
  5
1A4C
  9
$SURFTAB1
 70
     6
  9
$SURFTAB2
 70
     6
  9
$SURFTYPE
 70
     6
  9
$SURFU
 70
     6
  9
$SURFV
 70
     6
  9
$UCSNAME
  2

  9
$UCSORG
 10
0.0
 20
0.0
 30
0.0
  9
$UCSXDIR
 10
1.0
 20
0.0
 30
0.0
  9
$UCSYDIR
 10
0.0
 20
1.0
 30
0.0
  9
$PUCSNAME
  2

  9
$PUCSORG
 10
0.0
 20
0.0
 30
0.0
  9
$PUCSXDIR
 10
1.0
 20
0.0
 30
0.0
  9
$PUCSYDIR
 10
0.0
 20
1.0
 30
0.0
  9
$USERI1
 70
     0
  9
$USERI2
 70
     0
  9
$USERI3
 70
     0
  9
$USERI4
 70
     0
  9
$USERI5
 70
     0
  9
$USERR1
 40
0.0
  9
$USERR2
 40
0.0
  9
$USERR3
 40
0.0
  9
$USERR4
 40
0.0
  9
$USERR5
 40
0.0
  9
$WORLDVIEW
 70
     1
  9
$SHADEDGE
 70
     3
  9
$SHADEDIF
 70
    70
  9
$TILEMODE
 70
     1
  9
$MAXACTVP
 70
    64
  9
$PLIMCHECK
 70
     0
  9
$PEXTMIN
 10
0.0
 20
0.0
 30
0.0
  9
$PEXTMAX
 10
0.0
 20
0.0
 30
0.0
  9
$PLIMMIN
 10
0.0
 20
0.0
  9
$PLIMMAX
 10
0.0
 20
0.0
  9
$UNITMODE
 70
     0
  9
$VISRETAIN
 70
     1
  9
$PLINEGEN
 70
     0
  9
$PSLTSCALE
 70
     1
  0
ENDSEC
  0
SECTION
  2
TABLES
  0
TABLE
  2
VPORT
 70
     1
  0
VPORT
  2
*ACTIVE
 70
     0
 10
0.0
 20
0.0
 11
1.0
 21
1.0
 12
2541.15775712463
 22
-485.0147551183134
 13
0.0
 23
0.0
 14
0.5
 24
0.5
 15
0.5
 25
0.5
 16
0.0
 26
0.0
 36
1.0
 17
0.0
 27
0.0
 37
0.0
 40
6726.579709360007
 41
1.972972972850329
 42
50.0
 43
0.0
 44
0.0
 50
0.0
 51
0.0
 71
    16
 72
   100
 73
     1
 74
     1
 75
     0
 76
     0
 77
     0
 78
     0
  0
ENDTAB
  0
TABLE
  2
LTYPE
 70
     1
  0
LTYPE
  2
CONTINUOUS
 70
     0
  3
Default Line
 72
    65
 73
     0
 40
0.0
  0
ENDTAB
  0
TABLE
  2
LAYER
 70
     3
  0
LAYER
  2
0
 70
     0
 62
     7
  6
CONTINUOUS
  0
LAYER
  2
BEDIENRAUM
 70
     0
 62
     2
  6
CONTINUOUS
  0
LAYER
  2
DEFPOINTS
 70
     0
 62
     7
  6
CONTINUOUS
  0
ENDTAB
  0
TABLE
  2
STYLE
 70
     1
  0
STYLE
  2
STANDARD
 70
     0
 40
0.0
 41
1.0
 50
0.0
 71
     0
 42
0.2
  3
txt
  4

  0
ENDTAB
  0
TABLE
  2
VIEW
 70
     0
  0
ENDTAB
  0
TABLE
  2
UCS
 70
     0
  0
ENDTAB
  0
TABLE
  2
APPID
 70
     1
  0
APPID
  2
ACAD
 70
     0
  0
ENDTAB
  0
TABLE
  2
DIMSTYLE
 70
     1
  0
DIMSTYLE
  2
STANDARD
 70
     0
  3

  4

  5

  6

  7

 40
1.0
 41
0.18
 42
0.0625
 43
0.38
 44
0.18
 45
0.0
 46
0.0
 47
0.0
 48
0.0
140
0.18
141
0.09
142
0.0
143
25.4
144
1.0
145
0.0
146
1.0
147
0.09
 71
     0
 72
     0
 73
     1
 74
     1
 75
     0
 76
     0
 77
     0
 78
     0
170
     0
171
     2
172
     0
173
     0
174
     0
175
     0
176
     0
177
     0
178
     0
  0
ENDTAB
  0
ENDSEC
  0
SECTION
  2
BLOCKS
  0
BLOCK
  8
0
  2
$MODEL_SPACE
 70
     0
 10
0.0
 20
0.0
 30
0.0
  3
$MODEL_SPACE
  1

  0
ENDBLK
  5
21
  8
0
  0
BLOCK
 67
     1
  8
0
  2
$PAPER_SPACE
 70
     0
 10
0.0
 20
0.0
 30
0.0
  3
$PAPER_SPACE
  1

  0
ENDBLK
  5
76
 67
     1
  8
0
  0
BLOCK
  8
0
  2
*D0
 70
     1
 10
0.0
 20
0.0
 30
0.0
  3
*D0
  1

  0
POINT
  5
1899
  8
DEFPOINTS
  6
BYBLOCK
 62
     0
 10
-0.8
 20
0.0
 30
0.0
  0
POINT
  5
189A
  8
DEFPOINTS
  6
BYBLOCK
 62
     0
 10
-0.7999999999999545
 20
-400.0
 30
0.0
  0
LINE
  5
189B
  8
0
  6
BYBLOCK
 62
     0
 10
-0.8625
 20
0.0
 30
0.0
 11
-85.9657439084211
 21
0.0
 31
0.0
  0
LINE
  5
189C
  8
0
  6
BYBLOCK
 62
     0
 10
-0.8624999999999545
 20
-400.0
 30
0.0
 11
-85.9657439084211
 21
-400.0
 31
0.0
  0
LINE
  5
189D
  8
0
  6
BYBLOCK
 62
     0
 10
-85.7857439084211
 20
-30.0
 30
0.0
 11
-85.7857439084211
 21
-187.41
 31
0.0
  0
SOLID
  5
189E
  8
0
  6
BYBLOCK
 62
     0
 10
-85.7857439084211
 20
0.0
 30
0.0
 11
-90.78574390842209
 21
-30.0
 31
0.0
 12
-80.7857439084201
 22
-30.0
 32
0.0
 13
-80.7857439084201
 23
-30.0
 33
0.0
  0
LINE
  5
189F
  8
0
  6
BYBLOCK
 62
     0
 10
-85.7857439084211
 20
-370.0
 30
0.0
 11
-85.7857439084211
 21
-212.59
 31
0.0
  0
SOLID
  5
18A0
  8
0
  6
BYBLOCK
 62
     0
 10
-85.7857439084211
 20
-400.0
 30
0.0
 11
-90.78574390842209
 21
-370.0
 31
0.0
 12
-80.7857439084201
 22
-370.0
 32
0.0
 13
-80.7857439084201
 23
-370.0
 33
0.0
  0
TEXT
  5
18A1
  8
0
  6
BYBLOCK
 62
     0
 10
-139.7857439084211
 20
-212.5
 30
0.0
 40
25.0
  1
400.00
  0
ENDBLK
  5
19DC
  8
0
  0
BLOCK
  8
0
  2
*D1
 70
     1
 10
0.0
 20
0.0
 30
0.0
  3
*D1
  1

  0
POINT
  5
18A6
  8
DEFPOINTS
  6
BYBLOCK
 62
     0
 10
-0.8
 20
0.0
 30
0.0
  0
POINT
  5
18A7
  8
DEFPOINTS
  6
BYBLOCK
 62
     0
 10
969.2
 20
0.0
 30
0.0
  0
LINE
  5
18A8
  8
0
  6
BYBLOCK
 62
     0
 10
-0.8
 20
0.0625
 30
0.0
 11
-0.8
 21
156.7116840237614
 31
0.0
  0
LINE
  5
18A9
  8
0
  6
BYBLOCK
 62
     0
 10
969.2
 20
0.0625
 30
0.0
 11
969.2
 21
156.7116840237614
 31
0.0
  0
LINE
  5
18AA
  8
0
  6
BYBLOCK
 62
     0
 10
29.2
 20
156.5316840237614
 30
0.0
 11
427.985
 21
156.5316840237614
 31
0.0
  0
SOLID
  5
18AB
  8
0
  6
BYBLOCK
 62
     0
 10
-0.8
 20
156.5316840237614
 30
0.0
 11
29.2
 21
151.5316840237604
 31
0.0
 12
29.2
 22
161.5316840237624
 32
0.0
 13
29.2
 23
161.5316840237624
 33
0.0
  0
LINE
  5
18AC
  8
0
  6
BYBLOCK
 62
     0
 10
939.2
 20
156.5316840237614
 30
0.0
 11
540.4150000000001
 21
156.5316840237614
 31
0.0
  0
SOLID
  5
18AD
  8
0
  6
BYBLOCK
 62
     0
 10
969.2
 20
156.5316840237614
 30
0.0
 11
939.2
 21
151.5316840237604
 31
0.0
 12
939.2
 22
161.5316840237624
 32
0.0
 13
939.2
 23
161.5316840237624
 33
0.0
  0
TEXT
  5
18AE
  8
0
  6
BYBLOCK
 62
     0
 10
428.075
 20
144.0316840237614
 30
0.0
 40
25.0
  1
970.00
  0
ENDBLK
  5
19DE
  8
0
  0
BLOCK
  8
0
  2
*D2
 70
     1
 10
0.0
 20
0.0
 30
0.0
  3
*D2
  1

  0
POINT
  5
18B3
  8
DEFPOINTS
  6
BYBLOCK
 62
     0
 10
1939.2
 20
0.0
 30
0.0
  0
POINT
  5
18B4
  8
DEFPOINTS
  6
BYBLOCK
 62
     0
 10
969.2
 20
0.0625
 30
0.0
  0
LINE
  5
18B5
  8
0
  6
BYBLOCK
 62
     0
 10
1939.2
 20
0.0625
 30
0.0
 11
1939.2
 21
156.7116840237614
 31
0.0
  0
LINE
  5
18B6
  8
0
  6
BYBLOCK
 62
     0
 10
969.2
 20
0.125
 30
0.0
 11
969.2
 21
156.7116840237614
 31
0.0
  0
LINE
  5
18B7
  8
0
  6
BYBLOCK
 62
     0
 10
1909.2
 20
156.5316840237614
 30
0.0
 11
1510.415
 21
156.5316840237614
 31
0.0
  0
SOLID
  5
18B8
  8
0
  6
BYBLOCK
 62
     0
 10
1939.2
 20
156.5316840237614
 30
0.0
 11
1909.2
 21
161.5316840237624
 31
0.0
 12
1909.2
 22
151.5316840237604
 32
0.0
 13
1909.2
 23
151.5316840237604
 33
0.0
  0
LINE
  5
18B9
  8
0
  6
BYBLOCK
 62
     0
 10
999.2
 20
156.5316840237614
 30
0.0
 11
1397.985
 21
156.5316840237614
 31
0.0
  0
SOLID
  5
18BA
  8
0
  6
BYBLOCK
 62
     0
 10
969.2
 20
156.5316840237614
 30
0.0
 11
999.2
 21
161.5316840237624
 31
0.0
 12
999.2
 22
151.5316840237604
 32
0.0
 13
999.2
 23
151.5316840237604
 33
0.0
  0
TEXT
  5
18BB
  8
0
  6
BYBLOCK
 62
     0
 10
1398.075
 20
144.0316840237614
 30
0.0
 40
25.0
  1
970.00
  0
ENDBLK
  5
19E0
  8
0
  0
BLOCK
  8
0
  2
*D3
 70
     1
 10
0.0
 20
0.0
 30
0.0
  3
*D3
  1

  0
POINT
  5
18C0
  8
DEFPOINTS
  6
BYBLOCK
 62
     0
 10
2909.2
 20
0.0
 30
0.0
  0
POINT
  5
18C1
  8
DEFPOINTS
  6
BYBLOCK
 62
     0
 10
1939.2
 20
0.0625
 30
0.0
  0
LINE
  5
18C2
  8
0
  6
BYBLOCK
 62
     0
 10
2909.2
 20
0.0625
 30
0.0
 11
2909.2
 21
156.7116840237614
 31
0.0
  0
LINE
  5
18C3
  8
0
  6
BYBLOCK
 62
     0
 10
1939.2
 20
0.125
 30
0.0
 11
1939.2
 21
156.7116840237614
 31
0.0
  0
LINE
  5
18C4
  8
0
  6
BYBLOCK
 62
     0
 10
2879.2
 20
156.5316840237614
 30
0.0
 11
2480.415
 21
156.5316840237614
 31
0.0
  0
SOLID
  5
18C5
  8
0
  6
BYBLOCK
 62
     0
 10
2909.2
 20
156.5316840237614
 30
0.0
 11
2879.2
 21
161.5316840237624
 31
0.0
 12
2879.2
 22
151.5316840237604
 32
0.0
 13
2879.2
 23
151.5316840237604
 33
0.0
  0
LINE
  5
18C6
  8
0
  6
BYBLOCK
 62
     0
 10
1969.2
 20
156.5316840237614
 30
0.0
 11
2367.985
 21
156.5316840237614
 31
0.0
  0
SOLID
  5
18C7
  8
0
  6
BYBLOCK
 62
     0
 10
1939.2
 20
156.5316840237614
 30
0.0
 11
1969.2
 21
161.5316840237624
 31
0.0
 12
1969.2
 22
151.5316840237604
 32
0.0
 13
1969.2
 23
151.5316840237604
 33
0.0
  0
TEXT
  5
18C8
  8
0
  6
BYBLOCK
 62
     0
 10
2368.075
 20
144.0316840237614
 30
0.0
 40
25.0
  1
970.00
  0
ENDBLK
  5
19E2
  8
0
  0
BLOCK
  8
0
  2
*D4
 70
     1
 10
0.0
 20
0.0
 30
0.0
  3
*D4
  1

  0
POINT
  5
18CD
  8
DEFPOINTS
  6
BYBLOCK
 62
     0
 10
3879.2
 20
0.0
 30
0.0
  0
POINT
  5
18CE
  8
DEFPOINTS
  6
BYBLOCK
 62
     0
 10
2909.2
 20
0.0625
 30
0.0
  0
LINE
  5
18CF
  8
0
  6
BYBLOCK
 62
     0
 10
3879.2
 20
0.0625
 30
0.0
 11
3879.2
 21
156.7116840237614
 31
0.0
  0
LINE
  5
18D0
  8
0
  6
BYBLOCK
 62
     0
 10
2909.2
 20
0.125
 30
0.0
 11
2909.2
 21
156.7116840237614
 31
0.0
  0
LINE
  5
18D1
  8
0
  6
BYBLOCK
 62
     0
 10
3849.2
 20
156.5316840237614
 30
0.0
 11
3450.415
 21
156.5316840237614
 31
0.0
  0
SOLID
  5
18D2
  8
0
  6
BYBLOCK
 62
     0
 10
3879.2
 20
156.5316840237614
 30
0.0
 11
3849.2
 21
161.5316840237624
 31
0.0
 12
3849.2
 22
151.5316840237604
 32
0.0
 13
3849.2
 23
151.5316840237604
 33
0.0
  0
LINE
  5
18D3
  8
0
  6
BYBLOCK
 62
     0
 10
2939.2
 20
156.5316840237614
 30
0.0
 11
3337.985
 21
156.5316840237614
 31
0.0
  0
SOLID
  5
18D4
  8
0
  6
BYBLOCK
 62
     0
 10
2909.2
 20
156.5316840237614
 30
0.0
 11
2939.2
 21
161.5316840237624
 31
0.0
 12
2939.2
 22
151.5316840237604
 32
0.0
 13
2939.2
 23
151.5316840237604
 33
0.0
  0
TEXT
  5
18D5
  8
0
  6
BYBLOCK
 62
     0
 10
3338.075
 20
144.0316840237614
 30
0.0
 40
25.0
  1
970.00
  0
ENDBLK
  5
19E4
  8
0
  0
ENDSEC
  0
SECTION
  2
ENTITIES
  0
LINE
  5
151E
  8
0
  6
BYBLOCK
 10
-17.2
 20
0.0
 30
0.0
 11
-17.2
 21
200.0
 31
0.0
  0
LINE
  5
151F
  8
0
  6
BYBLOCK
 10
-17.2
 20
200.0
 30
0.0
 11
952.8000000000001
 21
200.0
 31
0.0
  0
LINE
  5
1520
  8
0
  6
BYBLOCK
 10
952.8000000000001
 20
200.0
 30
0.0
 11
952.8000000000001
 21
-200.0
 31
0.0
  0
LINE
  5
1521
  8
0
  6
BYBLOCK
 10
952.8000000000001
 20
-200.0
 30
0.0
 11
-17.19999999999995
 21
-200.0
 31
0.0
  0
LINE
  5
1522
  8
0
  6
BYBLOCK
 10
-17.19999999999995
 20
-200.0
 30
0.0
 11
-17.2
 21
0.0
 31
0.0
  0
LINE
  5
1523
  8
0
  6
BYBLOCK
 10
952.8000000000001
 20
200.0
 30
0.0
 11
1922.8
 21
200.0
 31
0.0
  0
LINE
  5
1524
  8
0
  6
BYBLOCK
 10
1922.8
 20
200.0
 30
0.0
 11
1922.8
 21
-200.0
 31
0.0
  0
LINE
  5
1525
  8
0
  6
BYBLOCK
 10
1922.8
 20
-200.0
 30
0.0
 11
952.8000000000001
 21
-200.0
 31
0.0
  0
LINE
  5
1526
  8
0
  6
BYBLOCK
 10
952.8000000000001
 20
-200.0
 30
0.0
 11
952.8000000000001
 21
200.0
 31
0.0
  0
LINE
  5
1527
  8
0
  6
BYBLOCK
 10
1922.8
 20
200.0
 30
0.0
 11
2892.8
 21
200.0
 31
0.0
  0
LINE
  5
1528
  8
0
  6
BYBLOCK
 10
2892.8
 20
200.0
 30
0.0
 11
2892.8
 21
-200.0
 31
0.0
  0
LINE
  5
1529
  8
0
  6
BYBLOCK
 10
2892.8
 20
-200.0
 30
0.0
 11
1922.8
 21
-200.0
 31
0.0
  0
LINE
  5
152A
  8
0
  6
BYBLOCK
 10
2892.8
 20
200.0
 30
0.0
 11
3862.8
 21
200.0
 31
0.0
  0
LINE
  5
152B
  8
0
  6
BYBLOCK
 10
3862.8
 20
200.0
 30
0.0
 11
3862.8
 21
-200.0
 31
0.0
  0
LINE
  5
152C
  8
0
  6
BYBLOCK
 10
3862.8
 20
-200.0
 30
0.0
 11
2892.8
 21
-200.0
 31
0.0
  0
POLYLINE
  5
1546
  8
0
  6
BYBLOCK
 66
     1
 10
0.0
 20
0.0
 30
0.0
 40
9.0
 41
9.0
  0
VERTEX
  5
19E9
  8
0
  6
BYBLOCK
 10
740.398035
 20
-168.251633
 30
0.0
  0
VERTEX
  5
19EA
  8
0
  6
BYBLOCK
 10
594.197069
 20
-141.868346
 30
0.0
  0
VERTEX
  5
19EB
  8
0
  6
BYBLOCK
 10
433.080641
 20
-98.69732900000002
 30
0.0
  0
VERTEX
  5
19EC
  8
0
  6
BYBLOCK
 10
271.964214
 20
-55.52631199999996
 30
0.0
  0
VERTEX
  5
19ED
  8
0
  6
BYBLOCK
 10
110.8477855
 20
-12.35529550000001
 30
0.0
  0
VERTEX
  5
19EE
  8
0
  6
BYBLOCK
 10
0.0
 20
0.0
 30
0.0
  0
SEQEND
  5
19E8
  8
0
  6
BYBLOCK
  0
POLYLINE
  5
155B
  8
0
  6
BYBLOCK
 66
     1
 10
0.0
 20
0.0
 30
0.0
 40
9.0
 41
9.0
  0
VERTEX
  5
19F0
  8
0
  6
BYBLOCK
 10
886.598035
 20
168.251633
 30
0.0
  0
VERTEX
  5
19F1
  8
0
  6
BYBLOCK
 10
740.397069
 20
141.868345
 30
0.0
  0
VERTEX
  5
19F2
  8
0
  6
BYBLOCK
 10
579.2806410000001
 20
98.697328
 30
0.0
  0
VERTEX
  5
19F3
  8
0
  6
BYBLOCK
 10
418.164214
 20
55.52631199999999
 30
0.0
  0
VERTEX
  5
19F4
  8
0
  6
BYBLOCK
 10
257.0477855
 20
12.35529550000001
 30
0.0
  0
VERTEX
  5
19F5
  8
0
  6
BYBLOCK
 10
146.2
 20
0.0
 30
0.0
  0
SEQEND
  5
19EF
  8
0
  6
BYBLOCK
  0
LINE
  5
15D0
  8
0
  6
BYBLOCK
 10
3549.8
 20
5.0
 30
0.0
 11
3549.8
 21
-5.0
 31
0.0
  0
CIRCLE
  5
15D1
  8
0
  6
BYBLOCK
 10
3549.8
 20
0.0
 30
0.0
 40
80.0
  0
POLYLINE
  5
15D6
  8
0
  6
BYBLOCK
 66
     1
 10
0.0
 20
0.0
 30
0.0
 40
9.0
 41
9.0
  0
VERTEX
  5
19F7
  8
0
  6
BYBLOCK
 10
3611.083555
 20
51.42300900000001
 30
0.0
  0
VERTEX
  5
19F8
  8
0
  6
BYBLOCK
 10
3764.726926540983
 20
179.4591519508197
 30
0.0
  0
SEQEND
  5
19F6
  8
0
  6
BYBLOCK
  0
POLYLINE
  5
15DB
  8
0
  6
BYBLOCK
 66
     1
 10
0.0
 20
0.0
 30
0.0
 40
9.0
 41
9.0
  0
VERTEX
  5
19FA
  8
0
  6
BYBLOCK
 10
3619.435522381882
 20
39.38139183170631
 30
0.0
  0
VERTEX
  5
19FB
  8
0
  6
BYBLOCK
 10
3792.287113
 20
140.0
 30
0.0
  0
SEQEND
  5
19F9
  8
0
  6
BYBLOCK
  0
POLYLINE
  5
15E0
  8
0
  6
BYBLOCK
 66
     1
 10
0.0
 20
0.0
 30
0.0
 40
9.0
 41
9.0
  0
VERTEX
  5
19FD
  8
0
  6
BYBLOCK
 10
3624.975404305195
 20
27.36162618614722
 30
0.0
  0
VERTEX
  5
19FE
  8
0
  6
BYBLOCK
 10
3812.913934
 20
95.76564000000002
 30
0.0
  0
SEQEND
  5
19FC
  8
0
  6
BYBLOCK
  0
POLYLINE
  5
15E5
  8
0
  6
BYBLOCK
 66
     1
 10
0.0
 20
0.0
 30
0.0
 40
9.0
 41
9.0
  0
VERTEX
  5
1A00
  8
0
  6
BYBLOCK
 10
3628.58462
 20
13.891854
 30
0.0
  0
VERTEX
  5
1A01
  8
0
  6
BYBLOCK
 10
3825.546171
 20
48.62148999999999
 30
0.0
  0
SEQEND
  5
19FF
  8
0
  6
BYBLOCK
  0
POLYLINE
  5
15EA
  8
0
  6
BYBLOCK
 66
     1
 10
0.0
 20
0.0
 30
0.0
 40
9.0
 41
9.0
  0
VERTEX
  5
1A03
  8
0
  6
BYBLOCK
 10
3629.8
 20
0.0
 30
0.0
  0
VERTEX
  5
1A04
  8
0
  6
BYBLOCK
 10
3829.8
 20
0.0
 30
0.0
  0
SEQEND
  5
1A02
  8
0
  6
BYBLOCK
  0
POLYLINE
  5
15EF
  8
0
  6
BYBLOCK
 66
     1
 10
0.0
 20
0.0
 30
0.0
 40
9.0
 41
9.0
  0
VERTEX
  5
1A06
  8
0
  6
BYBLOCK
 10
3628.58462
 20
-13.891854
 30
0.0
  0
VERTEX
  5
1A07
  8
0
  6
BYBLOCK
 10
3825.546171
 20
-48.62148999999999
 30
0.0
  0
SEQEND
  5
1A05
  8
0
  6
BYBLOCK
  0
POLYLINE
  5
15F4
  8
0
  6
BYBLOCK
 66
     1
 10
0.0
 20
0.0
 30
0.0
 40
9.0
 41
9.0
  0
VERTEX
  5
1A09
  8
0
  6
BYBLOCK
 10
3624.430209503025
 20
-28.81547899193404
 30
0.0
  0
VERTEX
  5
1A0A
  8
0
  6
BYBLOCK
 10
3812.913934
 20
-95.76564000000002
 30
0.0
  0
SEQEND
  5
1A08
  8
0
  6
BYBLOCK
  0
POLYLINE
  5
15F9
  8
0
  6
BYBLOCK
 66
     1
 10
0.0
 20
0.0
 30
0.0
 40
9.0
 41
9.0
  0
VERTEX
  5
1A0C
  8
0
  6
BYBLOCK
 10
3619.082002787349
 20
-40.00005112213879
 30
0.0
  0
VERTEX
  5
1A0D
  8
0
  6
BYBLOCK
 10
3792.728910002734
 20
-139.2268552452157
 30
0.0
  0
SEQEND
  5
1A0B
  8
0
  6
BYBLOCK
  0
POLYLINE
  5
15FE
  8
0
  6
BYBLOCK
 66
     1
 10
0.0
 20
0.0
 30
0.0
 40
9.0
 41
9.0
  0
VERTEX
  5
1A0F
  8
0
  6
BYBLOCK
 10
3611.083517334632
 20
-51.4230541984416
 30
0.0
  0
VERTEX
  5
1A10
  8
0
  6
BYBLOCK
 10
3764.292444
 20
-179.980531
 30
0.0
  0
SEQEND
  5
1A0E
  8
0
  6
BYBLOCK
  0
POLYLINE
  5
1715
  8
0
  6
BYBLOCK
 66
     1
 10
0.0
 20
0.0
 30
0.0
 40
9.0
 41
9.0
  0
VERTEX
  5
1A12
  8
0
  6
BYBLOCK
 10
3469.8
 20
0.0
 30
0.0
  0
VERTEX
  5
1A13
  8
0
  6
BYBLOCK
 10
-17.2
 20
0.0
 30
0.0
  0
SEQEND
  5
1A11
  8
0
  6
BYBLOCK
  0
POLYLINE
  5
171E
  8
0
  6
BYBLOCK
 66
     1
 10
0.0
 20
0.0
 30
0.0
 40
9.0
 41
9.0
  0
VERTEX
  5
1A15
  8
0
  6
BYBLOCK
 10
3471.015379729803
 20
13.89185404764277
 30
0.0
  0
VERTEX
  5
1A16
  8
0
  6
BYBLOCK
 10
3305.149366516351
 20
43.138507
 30
0.0
  0
VERTEX
  5
1A17
  8
0
  6
BYBLOCK
 10
2892.8
 20
43.138507
 30
0.0
  0
SEQEND
  5
1A14
  8
0
  6
BYBLOCK
  0
POLYLINE
  5
1727
  8
0
  6
BYBLOCK
 66
     1
 10
0.0
 20
0.0
 30
0.0
 40
9.0
 41
9.0
  0
VERTEX
  5
1A19
  8
0
  6
BYBLOCK
 10
3475.169790496975
 20
28.81547899193407
 30
0.0
  0
VERTEX
  5
1A1A
  8
0
  6
BYBLOCK
 10
3326.143350799011
 20
86.35609519756485
 30
0.0
  0
VERTEX
  5
1A1B
  8
0
  6
BYBLOCK
 10
2892.8
 20
86.35609519756485
 30
0.0
  0
SEQEND
  5
1A18
  8
0
  6
BYBLOCK
  0
POLYLINE
  5
1730
  8
0
  6
BYBLOCK
 66
     1
 10
0.0
 20
0.0
 30
0.0
 40
9.0
 41
9.0
  0
VERTEX
  5
1A1D
  8
0
  6
BYBLOCK
 10
3480.51799721265
 20
40.00005112213881
 30
0.0
  0
VERTEX
  5
1A1E
  8
0
  6
BYBLOCK
 10
3325.53350829488
 20
129.48054
 30
0.0
  0
VERTEX
  5
1A1F
  8
0
  6
BYBLOCK
 10
2892.8
 20
129.48054
 30
0.0
  0
SEQEND
  5
1A1C
  8
0
  6
BYBLOCK
  0
POLYLINE
  5
1739
  8
0
  6
BYBLOCK
 66
     1
 10
0.0
 20
0.0
 30
0.0
 40
9.0
 41
9.0
  0
VERTEX
  5
1A21
  8
0
  6
BYBLOCK
 10
3488.546277977029
 20
51.45854193749204
 30
0.0
  0
VERTEX
  5
1A22
  8
0
  6
BYBLOCK
 10
3350.612384151056
 20
167.33520747928
 30
0.0
  0
VERTEX
  5
1A23
  8
0
  6
BYBLOCK
 10
2892.8
 20
167.3352074792799
 30
0.0
  0
SEQEND
  5
1A20
  8
0
  6
BYBLOCK
  0
POLYLINE
  5
1742
  8
0
  6
BYBLOCK
 66
     1
 10
0.0
 20
0.0
 30
0.0
 40
9.0
 41
9.0
  0
VERTEX
  5
1A25
  8
0
  6
BYBLOCK
 10
3471.015379729803
 20
-13.89185404764282
 30
0.0
  0
VERTEX
  5
1A26
  8
0
  6
BYBLOCK
 10
3306.413455822876
 20
-42.9156139519761
 30
0.0
  0
VERTEX
  5
1A27
  8
0
  6
BYBLOCK
 10
2892.8
 20
-42.9156139519761
 30
0.0
  0
SEQEND
  5
1A24
  8
0
  6
BYBLOCK
  0
POLYLINE
  5
174B
  8
0
  6
BYBLOCK
 66
     1
 10
0.0
 20
0.0
 30
0.0
 40
9.0
 41
9.0
  0
VERTEX
  5
1A29
  8
0
  6
BYBLOCK
 10
3474.624595694805
 20
-27.36162618614719
 30
0.0
  0
VERTEX
  5
1A2A
  8
0
  6
BYBLOCK
 10
3312.666676200192
 20
-86.30952400000001
 30
0.0
  0
VERTEX
  5
1A2B
  8
0
  6
BYBLOCK
 10
3020.385918
 20
-86.30952400000001
 30
0.0
  0
SEQEND
  5
1A28
  8
0
  6
BYBLOCK
  0
POLYLINE
  5
1754
  8
0
  6
BYBLOCK
 66
     1
 10
0.0
 20
0.0
 30
0.0
 40
9.0
 41
9.0
  0
VERTEX
  5
1A2D
  8
0
  6
BYBLOCK
 10
3480.164477618117
 20
-39.38139183170634
 30
0.0
  0
VERTEX
  5
1A2E
  8
0
  6
BYBLOCK
 10
3321.710466439899
 20
-128.9928327755102
 30
0.0
  0
VERTEX
  5
1A2F
  8
0
  6
BYBLOCK
 10
2892.8
 20
-128.9928327755102
 30
0.0
  0
SEQEND
  5
1A2C
  8
0
  6
BYBLOCK
  0
POLYLINE
  5
175D
  8
0
  6
BYBLOCK
 66
     1
 10
0.0
 20
0.0
 30
0.0
 40
9.0
 41
9.0
  0
VERTEX
  5
1A31
  8
0
  6
BYBLOCK
 10
3488.51644484704
 20
-51.42300912834827
 30
0.0
  0
VERTEX
  5
1A32
  8
0
  6
BYBLOCK
 10
3349.285514260837
 20
-168.251633
 30
0.0
  0
VERTEX
  5
1A33
  8
0
  6
BYBLOCK
 10
2700.998035
 20
-168.251633
 30
0.0
  0
SEQEND
  5
1A30
  8
0
  6
BYBLOCK
  0
POLYLINE
  5
176A
  8
0
  6
BYBLOCK
 66
     1
 10
0.0
 20
0.0
 30
0.0
 40
9.0
 41
9.0
  0
VERTEX
  5
1A35
  8
0
  6
BYBLOCK
 10
2892.8
 20
167.3352074792799
 30
0.0
  0
VERTEX
  5
1A36
  8
0
  6
BYBLOCK
 10
881.5197332964245
 20
167.3352074792799
 30
0.0
  0
SEQEND
  5
1A34
  8
0
  6
BYBLOCK
  0
POLYLINE
  5
176F
  8
0
  6
BYBLOCK
 66
     1
 10
0.0
 20
0.0
 30
0.0
 40
9.0
 41
9.0
  0
VERTEX
  5
1A38
  8
0
  6
BYBLOCK
 10
2892.8
 20
129.48054
 30
0.0
  0
VERTEX
  5
1A39
  8
0
  6
BYBLOCK
 10
694.1651515920654
 20
129.48054
 30
0.0
  0
SEQEND
  5
1A37
  8
0
  6
BYBLOCK
  0
POLYLINE
  5
1774
  8
0
  6
BYBLOCK
 66
     1
 10
0.0
 20
0.0
 30
0.0
 40
9.0
 41
9.0
  0
VERTEX
  5
1A3B
  8
0
  6
BYBLOCK
 10
2892.8
 20
86.35609519756485
 30
0.0
  0
VERTEX
  5
1A3C
  8
0
  6
BYBLOCK
 10
533.2225326176641
 20
86.35609519756485
 30
0.0
  0
SEQEND
  5
1A3A
  8
0
  6
BYBLOCK
  0
POLYLINE
  5
1779
  8
0
  6
BYBLOCK
 66
     1
 10
0.0
 20
0.0
 30
0.0
 40
9.0
 41
9.0
  0
VERTEX
  5
1A3E
  8
0
  6
BYBLOCK
 10
2892.8
 20
43.138507
 30
0.0
  0
VERTEX
  5
1A3F
  8
0
  6
BYBLOCK
 10
371.932295913141
 20
43.138507
 30
0.0
  0
SEQEND
  5
1A3D
  8
0
  6
BYBLOCK
  0
POLYLINE
  5
177E
  8
0
  6
BYBLOCK
 66
     1
 10
0.0
 20
0.0
 30
0.0
 40
9.0
 41
9.0
  0
VERTEX
  5
1A41
  8
0
  6
BYBLOCK
 10
2892.8
 20
-42.9156139519761
 30
0.0
  0
VERTEX
  5
1A42
  8
0
  6
BYBLOCK
 10
224.9004477254785
 20
-42.9156139519761
 30
0.0
  0
SEQEND
  5
1A40
  8
0
  6
BYBLOCK
  0
POLYLINE
  5
1783
  8
0
  6
BYBLOCK
 66
     1
 10
0.0
 20
0.0
 30
0.0
 40
9.0
 41
9.0
  0
VERTEX
  5
1A44
  8
0
  6
BYBLOCK
 10
3020.385918
 20
-86.30952400000001
 30
0.0
  0
VERTEX
  5
1A45
  8
0
  6
BYBLOCK
 10
386.8487238790127
 20
-86.30952400000001
 30
0.0
  0
SEQEND
  5
1A43
  8
0
  6
BYBLOCK
  0
POLYLINE
  5
1788
  8
0
  6
BYBLOCK
 66
     1
 10
0.0
 20
0.0
 30
0.0
 40
9.0
 41
9.0
  0
VERTEX
  5
1A47
  8
0
  6
BYBLOCK
 10
2892.8
 20
-128.9928327755102
 30
0.0
  0
VERTEX
  5
1A48
  8
0
  6
BYBLOCK
 10
546.1449997286978
 20
-128.9928327755102
 30
0.0
  0
SEQEND
  5
1A46
  8
0
  6
BYBLOCK
  0
POLYLINE
  5
178D
  8
0
  6
BYBLOCK
 66
     1
 10
0.0
 20
0.0
 30
0.0
 40
9.0
 41
9.0
  0
VERTEX
  5
1A4A
  8
0
  6
BYBLOCK
 10
2700.998035
 20
-168.251633
 30
0.0
  0
VERTEX
  5
1A4B
  8
0
  6
BYBLOCK
 10
740.398035
 20
-168.251633
 30
0.0
  0
SEQEND
  5
1A49
  8
0
  6
BYBLOCK
  0
LINE
  5
1790
  8
0
  6
BYBLOCK
 10
3554.8
 20
-0.0000000000000568
 30
0.0
 11
3544.8
 21
-0.0000000000000853
 31
0.0
  0
LINE
  5
1883
  8
BEDIENRAUM
  6
BYBLOCK
 10
-17.2
 20
200.0
 30
0.0
 11
-17.19999999999997
 21
700.1335720770785
 31
0.0
  0
LINE
  5
1884
  8
BEDIENRAUM
  6
BYBLOCK
 10
-17.19999999999997
 20
700.1335720770785
 30
0.0
 11
3862.8
 21
700.1335720770784
 31
0.0
  0
LINE
  5
1885
  8
BEDIENRAUM
  6
BYBLOCK
 10
3862.8
 20
200.0
 30
0.0
 11
3862.8
 21
700.1335720770785
 31
0.0
  0
LINE
  5
1886
  8
BEDIENRAUM
  6
BYBLOCK
 10
-17.19999999999995
 20
-200.0
 30
0.0
 11
-17.20000000000005
 21
-700.0
 31
0.0
  0
LINE
  5
1887
  8
BEDIENRAUM
  6
BYBLOCK
 10
3862.8
 20
-200.0
 30
0.0
 11
3862.8
 21
-700.0
 31
0.0
  0
LINE
  5
1888
  8
BEDIENRAUM
  6
BYBLOCK
 10
-17.20000000000005
 20
-700.0
 30
0.0
 11
3862.8
 21
-700.0
 31
0.0
  0
TEXT
  5
19D5
  8
0
  6
BYBLOCK
 10
33.32502872799355
 20
86.35105181301502
 30
0.0
 40
20.0
  1
Schwarzheide
  0
TEXT
  5
19D6
  8
0
  6
BYBLOCK
 10
59.96286501718439
 20
138.3582559966733
 30
0.0
 40
50.0
  1
2400
  0
TEXT
  5
19D7
  8
0
  6
BYBLOCK
 10
17.23382517026379
 20
-116.6025513533591
 30
0.0
 40
50.0
  1
KaEli
  0
TEXT
  5
19D8
  8
0
  6
BYBLOCK
 10
19.86003331928274
 20
-183.7945019576832
 30
0.0
 40
50.0
  1
NRE-???
  0
ENDSEC
  0
EOF
