  0
SECTION
  2
HEADER
  9
$ACADVER
  1
AC1009
  9
$DWGCODEPAGE
  3
ansi_1252
  9
$INSBASE
 10
0.0
 20
0.0
 30
0.0
  9
$EXTMIN
 10
0.0
 20
-200.0
 30
0.0
  9
$EXTMAX
 10
200.0
 20
200.0
 30
0.0
  9
$LIMMIN
 10
0.0
 20
0.0
  9
$LIMMAX
 10
420.0
 20
297.0
  9
$ORTHOMODE
 70
     0
  9
$REGENMODE
 70
     1
  9
$FILLMODE
 70
     1
  9
$QTEXTMODE
 70
     0
  9
$MIRRTEXT
 70
     0
  9
$DRAGMODE
 70
     2
  9
$LTSCALE
 40
1.0
  9
$OSMODE
 70
    37
  9
$ATTMODE
 70
     1
  9
$TEXTSIZE
 40
20.0
  9
$TRACEWID
 40
1.0
  9
$TEXTSTYLE
  7
STANDARD
  9
$CLAYER
  8
0
  9
$CELTYPE
  6
BYLAYER
  9
$CECOLOR
 62
   256
  9
$DIMSCALE
 40
1.0
  9
$DIMASZ
 40
2.5
  9
$DIMEXO
 40
0.625
  9
$DIMDLI
 40
3.75
  9
$DIMRND
 40
0.0
  9
$DIMDLE
 40
0.0
  9
$DIMEXE
 40
1.25
  9
$DIMTP
 40
0.0
  9
$DIMTM
 40
0.0
  9
$DIMTXT
 40
2.5
  9
$DIMCEN
 40
2.5
  9
$DIMTSZ
 40
0.0
  9
$DIMTOL
 70
     0
  9
$DIMLIM
 70
     0
  9
$DIMTIH
 70
     0
  9
$DIMTOH
 70
     0
  9
$DIMSE1
 70
     0
  9
$DIMSE2
 70
     0
  9
$DIMTAD
 70
     1
  9
$DIMZIN
 70
     8
  9
$DIMBLK
  1

  9
$DIMASO
 70
     1
  9
$DIMSHO
 70
     1
  9
$DIMPOST
  1

  9
$DIMAPOST
  1

  9
$DIMALT
 70
     0
  9
$DIMALTD
 70
     3
  9
$DIMALTF
 40
0.03937007874016
  9
$DIMLFAC
 40
1.0
  9
$DIMTOFL
 70
     1
  9
$DIMTVP
 40
0.0
  9
$DIMTIX
 70
     0
  9
$DIMSOXD
 70
     0
  9
$DIMSAH
 70
     0
  9
$DIMBLK1
  1

  9
$DIMBLK2
  1

  9
$DIMSTYLE
  2
ISO-25
  9
$DIMCLRD
 70
     0
  9
$DIMCLRE
 70
     0
  9
$DIMCLRT
 70
     0
  9
$DIMTFAC
 40
1.0
  9
$DIMGAP
 40
0.625
  9
$LUNITS
 70
     2
  9
$LUPREC
 70
     4
  9
$SKETCHINC
 40
1.0
  9
$FILLETRAD
 40
0.0
  9
$AUNITS
 70
     0
  9
$AUPREC
 70
     0
  9
$MENU
  1
.
  9
$ELEVATION
 40
0.0
  9
$PELEVATION
 40
0.0
  9
$THICKNESS
 40
0.0
  9
$LIMCHECK
 70
     0
  9
$CHAMFERA
 40
0.0
  9
$CHAMFERB
 40
0.0
  9
$SKPOLY
 70
     0
  9
$TDCREATE
 40
2453353.800459155
  9
$TDUPDATE
 40
2456084.12577
  9
$TDINDWG
 40
9791572.06217926
  9
$TDUSRTIMER
 40
9791572.06217926
  9
$USRTIMER
 70
     1
  9
$ANGBASE
 50
0.0
  9
$ANGDIR
 70
     0
  9
$PDMODE
 70
     0
  9
$PDSIZE
 40
0.0
  9
$PLINEWID
 40
9.0
  9
$COORDS
 70
     1
  9
$SPLFRAME
 70
     0
  9
$SPLINETYPE
 70
     6
  9
$SPLINESEGS
 70
     8
  9
$ATTDIA
 70
     0
  9
$ATTREQ
 70
     1
  9
$HANDLING
 70
     1
  9
$HANDSEED
  5
ED
  9
$SURFTAB1
 70
     6
  9
$SURFTAB2
 70
     6
  9
$SURFTYPE
 70
     6
  9
$SURFU
 70
     6
  9
$SURFV
 70
     6
  9
$UCSNAME
  2

  9
$UCSORG
 10
0.0
 20
0.0
 30
0.0
  9
$UCSXDIR
 10
1.0
 20
0.0
 30
0.0
  9
$UCSYDIR
 10
0.0
 20
1.0
 30
0.0
  9
$PUCSNAME
  2

  9
$PUCSORG
 10
0.0
 20
0.0
 30
0.0
  9
$PUCSXDIR
 10
1.0
 20
0.0
 30
0.0
  9
$PUCSYDIR
 10
0.0
 20
1.0
 30
0.0
  9
$USERI1
 70
     0
  9
$USERI2
 70
     0
  9
$USERI3
 70
     0
  9
$USERI4
 70
     0
  9
$USERI5
 70
     0
  9
$USERR1
 40
0.0
  9
$USERR2
 40
0.0
  9
$USERR3
 40
0.0
  9
$USERR4
 40
0.0
  9
$USERR5
 40
0.0
  9
$WORLDVIEW
 70
     1
  9
$SHADEDGE
 70
     3
  9
$SHADEDIF
 70
    70
  9
$TILEMODE
 70
     1
  9
$MAXACTVP
 70
    64
  9
$PLIMCHECK
 70
     0
  9
$PEXTMIN
 10
1.000000000000000E+20
 20
1.000000000000000E+20
 30
1.000000000000000E+20
  9
$PEXTMAX
 10
-1.000000000000000E+20
 20
-1.000000000000000E+20
 30
-1.000000000000000E+20
  9
$PLIMMIN
 10
0.0
 20
0.0
  9
$PLIMMAX
 10
420.0
 20
297.0
  9
$UNITMODE
 70
     0
  9
$VISRETAIN
 70
     1
  9
$PLINEGEN
 70
     0
  9
$PSLTSCALE
 70
     1
  0
ENDSEC
  0
SECTION
  2
TABLES
  0
TABLE
  2
VPORT
 70
     1
  0
VPORT
  2
*ACTIVE
 70
     0
 10
0.0
 20
0.0
 11
1.0
 21
1.0
 12
144.8841256547827
 22
66.16173893180061
 13
0.0
 23
0.0
 14
10.0
 24
10.0
 15
10.0
 25
10.0
 16
0.0
 26
0.0
 36
1.0
 17
0.0
 27
0.0
 37
0.0
 40
768.6733854954296
 41
1.664827586206897
 42
50.0
 43
0.0
 44
0.0
 50
0.0
 51
0.0
 71
    16
 72
  1000
 73
     1
 74
     3
 75
     0
 76
     0
 77
     0
 78
     0
  0
ENDTAB
  0
TABLE
  2
LTYPE
 70
     1
  0
LTYPE
  2
CONTINUOUS
 70
     0
  3
Solid line
 72
    65
 73
     0
 40
0.0
  0
ENDTAB
  0
TABLE
  2
LAYER
 70
     1
  0
LAYER
  2
0
 70
     0
 62
     7
  6
CONTINUOUS
  0
ENDTAB
  0
TABLE
  2
STYLE
 70
     1
  0
STYLE
  2
STANDARD
 70
     0
 40
0.0
 41
1.0
 50
0.0
 71
     0
 42
2.5
  3
txt
  4

  0
ENDTAB
  0
TABLE
  2
VIEW
 70
     0
  0
ENDTAB
  0
TABLE
  2
UCS
 70
     0
  0
ENDTAB
  0
TABLE
  2
APPID
 70
     1
  0
APPID
  2
ACAD
 70
     0
  0
ENDTAB
  0
TABLE
  2
DIMSTYLE
 70
     2
  0
DIMSTYLE
  2
STANDARD
 70
     0
  3

  4

  5

  6

  7

 40
1.0
 41
0.18
 42
0.0625
 43
0.38
 44
0.18
 45
0.0
 46
0.0
 47
0.0
 48
0.0
140
0.18
141
0.09
142
0.0
143
25.4
144
1.0
145
0.0
146
1.0
147
0.09
 71
     0
 72
     0
 73
     1
 74
     1
 75
     0
 76
     0
 77
     0
 78
     0
170
     0
171
     2
172
     0
173
     0
174
     0
175
     0
176
     0
177
     0
178
     0
  0
DIMSTYLE
  2
ISO-25
 70
     0
  3

  4

  5

  6

  7

 40
1.0
 41
2.5
 42
0.625
 43
3.75
 44
1.25
 45
0.0
 46
0.0
 47
0.0
 48
0.0
140
2.5
141
2.5
142
0.0
143
0.03937007874016
144
1.0
145
0.0
146
1.0
147
0.625
 71
     0
 72
     0
 73
     0
 74
     0
 75
     0
 76
     0
 77
     1
 78
     8
170
     0
171
     3
172
     1
173
     0
174
     0
175
     0
176
     0
177
     0
178
     0
  0
ENDTAB
  0
ENDSEC
  0
SECTION
  2
BLOCKS
  0
BLOCK
  8
0
  2
$MODEL_SPACE
 70
     0
 10
0.0
 20
0.0
 30
0.0
  3
$MODEL_SPACE
  1

  0
ENDBLK
  5
21
  8
0
  0
BLOCK
 67
     1
  8
0
  2
$PAPER_SPACE
 70
     0
 10
0.0
 20
0.0
 30
0.0
  3
$PAPER_SPACE
  1

  0
ENDBLK
  5
76
 67
     1
  8
0
  0
BLOCK
  8
0
  2
_HP01
 70
     0
 10
0.0
 20
0.0
 30
0.0
  3
_HP01
  1

  0
LINE
  5
32
  8
0
 10
0.0
 20
0.0
 30
0.0
 11
0.0
 21
150.0
 31
0.0
  0
POLYLINE
  5
33
  8
0
 66
     1
 10
0.0
 20
0.0
 30
0.0
  0
VERTEX
  5
CE
  8
0
 10
0.0
 20
150.0
 30
0.0
  0
VERTEX
  5
CF
  8
0
 10
75.0
 20
150.0
 30
0.0
  0
VERTEX
  5
D0
  8
0
 10
75.0
 20
125.0
 30
0.0
  0
VERTEX
  5
D1
  8
0
 10
0.0
 20
125.0
 30
0.0
  0
VERTEX
  5
D2
  8
0
 10
0.0
 20
150.0
 30
0.0
  0
SEQEND
  5
CD
  8
0
  0
INSERT
  5
34
  8
0
  6
CONTINUOUS
  2
*U4
 10
0.0
 20
0.0
 30
0.0
1001
ACAD
1002
{
1000
R14_HATCH_DATA
1000
34
1011
1.0
1021
0.0
1031
0.0
1021
0.0
1031
0.0
1011
0.0
1021
1.0
1031
0.0
1021
1.0
1031
0.0
1011
0.0
1021
0.0
1031
1.0
1021
0.0
1031
1.0
1040
0.0
1010
0.0
1020
0.0
1030
1.0
1020
0.0
1030
1.0
1000
SOLID
1070
     1
1070
     1
1071
        1
1071
        1
1071
        4
1070
     1
1040
0.0
1040
150.0
1040
75.0
1040
150.0
1070
     1
1040
75.0
1040
150.0
1040
75.0
1040
125.0
1070
     1
1040
75.0
1040
125.0
1040
0.0
1040
125.0
1070
     1
1040
0.0
1040
125.0
1040
0.0
1040
150.0
1071
        0
1070
     0
1070
     1
1071
        1
1040
0.0
1040
0.0
1040
0.0
1002
}
  0
ENDBLK
  5
BF
  8
0
  0
BLOCK
  8
0
  2
SIGDEMO
 70
     0
 10
0.0
 20
0.0
 30
0.0
  3
SIGDEMO
  1

  0
POLYLINE
  5
38
  8
0
 66
     1
 10
0.0
 20
0.0
 30
0.0
 70
     1
  0
VERTEX
  5
D9
  8
0
 10
0.0
 20
-200.0
 30
0.0
  0
VERTEX
  5
DA
  8
0
 10
300.0
 20
-200.0
 30
0.0
  0
VERTEX
  5
DB
  8
0
 10
300.0
 20
200.0
 30
0.0
  0
VERTEX
  5
DC
  8
0
 10
0.0
 20
200.0
 30
0.0
  0
SEQEND
  5
D8
  8
0
  0
POLYLINE
  5
39
  8
0
 66
     1
 10
0.0
 20
0.0
 30
0.0
 40
9.0
 41
9.0
  0
VERTEX
  5
DE
  8
0
 10
0.0
 20
0.0
 30
0.0
  0
VERTEX
  5
DF
  8
0
 10
300.0
 20
0.0
 30
0.0
  0
SEQEND
  5
DD
  8
0
  0
INSERT
  5
3A
  8
0
  2
_HP01
 10
91.90841746931073
 20
-50.28900366816492
 30
0.0
 50
270.0
  0
ENDBLK
  5
C1
  8
0
  0
BLOCK
  8
0
  2
NRE-458
 70
     0
 10
0.0
 20
0.0
 30
0.0
  3
NRE-458
  1

  0
INSERT
  5
AD
  8
0
  2
_HP01
 10
164.3319502074689
 20
50.2890036681647
 30
0.0
 50
90.0
  0
POLYLINE
  5
AE
  8
0
 66
     1
 10
0.0
 20
0.0
 30
0.0
 70
     1
  0
VERTEX
  5
E1
  8
0
 10
0.0
 20
-200.0
 30
0.0
  0
VERTEX
  5
E2
  8
0
 10
200.0
 20
-200.0
 30
0.0
  0
VERTEX
  5
E3
  8
0
 10
200.0
 20
200.0
 30
0.0
  0
VERTEX
  5
E4
  8
0
 10
0.0
 20
200.0
 30
0.0
  0
SEQEND
  5
E0
  8
0
  0
POLYLINE
  5
AF
  8
0
 66
     1
 10
0.0
 20
0.0
 30
0.0
 40
9.0
 41
9.0
  0
VERTEX
  5
E6
  8
0
 10
0.0
 20
0.0
 30
0.0
  0
VERTEX
  5
E7
  8
0
 10
200.0
 20
0.0
 30
0.0
  0
SEQEND
  5
E5
  8
0
  0
TEXT
  5
B0
  8
0
 10
72.10606195957917
 20
146.7572417831334
 30
0.0
 40
20.0
  1
200
  0
TEXT
  5
B1
  8
0
 10
33.21739932969649
 20
-84.95437305326141
 30
0.0
 40
20.0
  1
NRE-458
  0
TEXT
  5
B2
  8
0
 10
54.28209158754908
 20
-43.63516900900868
 30
0.0
 40
20.0
  1
AnPie
  0
TEXT
  5
B3
  8
0
 62
     2
 10
38.07848215842932
 20
-180.5556686850587
 30
0.0
 40
10.0
  1
DL 06/12
  0
TEXT
  5
B4
  8
0
 10
41.4228069178336
 20
82.95435684647305
 30
0.0
 40
20.0
  1
HP0/HP2
  0
INSERT
  5
B5
  8
0
  6
CONTINUOUS
  2
*U5
 10
0.0
 20
0.0
 30
0.0
1001
ACAD
1002
{
1000
R14_HATCH_DATA
1000
B5
1011
1.0
1021
0.0
1031
0.0
1021
0.0
1031
0.0
1011
0.0
1021
1.0
1031
0.0
1021
1.0
1031
0.0
1011
0.0
1021
0.0
1031
1.0
1021
0.0
1031
1.0
1040
0.0
1010
0.0
1020
0.0
1030
1.0
1020
0.0
1030
1.0
1000
SOLID
1070
     1
1070
     1
1071
        1
1071
        1
1071
        4
1070
     1
1040
121.6956834138548
1040
75.25446983202302
1040
121.6956834138548
1040
50.25446983202302
1070
     1
1040
121.6956834138548
1040
50.25446983202302
1040
71.6956834138548
1040
50.25446983202303
1070
     1
1040
71.6956834138548
1040
50.25446983202303
1040
71.6956834138548
1040
75.25446983202303
1070
     1
1040
71.6956834138548
1040
75.25446983202303
1040
121.6956834138548
1040
75.25446983202302
1071
        0
1070
     0
1070
     1
1071
        1
1040
0.0
1040
0.0
1040
0.0
1002
}
  0
LINE
  5
B6
  8
0
 10
39.33195020746889
 20
125.2890036681647
 30
0.0
 11
122.4343107621167
 21
74.27263979624769
 31
0.0
  0
ENDBLK
  5
C3
  8
0
  0
BLOCK
  8
0
  2
*U4
 70
     1
 10
0.0
 20
0.0
 30
0.0
  3
*U4
  1

  0
SOLID
  5
D4
  8
0
  6
CONTINUOUS
 10
0.0
 20
125.0
 30
0.0
 11
0.0
 21
150.0
 31
0.0
 12
75.0
 22
125.0
 32
0.0
 13
75.0
 23
125.0
 33
0.0
  0
SOLID
  5
D5
  8
0
  6
CONTINUOUS
 10
75.0
 20
125.0
 30
0.0
 11
0.0
 21
150.0
 31
0.0
 12
75.0
 22
150.0
 32
0.0
 13
75.0
 23
150.0
 33
0.0
  0
ENDBLK
  5
D7
  8
0
  0
BLOCK
  8
0
  2
*U5
 70
     1
 10
0.0
 20
0.0
 30
0.0
  3
*U5
  1

  0
SOLID
  5
E9
  8
0
  6
CONTINUOUS
 10
71.6956834138548
 20
50.25446983202303
 30
0.0
 11
71.6956834138548
 21
75.25446983202303
 31
0.0
 12
121.6956834138548
 22
50.25446983202302
 32
0.0
 13
121.6956834138548
 23
50.25446983202302
 33
0.0
  0
SOLID
  5
EA
  8
0
  6
CONTINUOUS
 10
121.6956834138548
 20
50.25446983202302
 30
0.0
 11
71.6956834138548
 21
75.25446983202303
 31
0.0
 12
121.6956834138548
 22
75.25446983202302
 32
0.0
 13
121.6956834138548
 23
75.25446983202302
 33
0.0
  0
ENDBLK
  5
EC
  8
0
  0
ENDSEC
  0
SECTION
  2
ENTITIES
  0
INSERT
  5
B8
  8
0
  2
NRE-458
 10
0.0
 20
0.0
 30
0.0
  0
ENDSEC
  0
EOF
