  0
SECTION
  2
HEADER
  9
$ACADVER
  1
AC1009
  9
$DWGCODEPAGE
  3
ansi_1252
  9
$INSBASE
 10
0.0
 20
0.0
 30
0.0
  9
$EXTMIN
 10
-0.0000000000309228
 20
-570.6588728197189
 30
0.0
  9
$EXTMAX
 10
1699.999999999971
 20
200.000000000019
 30
0.0
  9
$LIMMIN
 10
0.0
 20
0.0
  9
$LIMMAX
 10
420.0
 20
297.0
  9
$ORTHOMODE
 70
     0
  9
$REGENMODE
 70
     1
  9
$FILLMODE
 70
     1
  9
$QTEXTMODE
 70
     0
  9
$MIRRTEXT
 70
     0
  9
$DRAGMODE
 70
     2
  9
$LTSCALE
 40
1.0
  9
$OSMODE
 70
    37
  9
$ATTMODE
 70
     1
  9
$TEXTSIZE
 40
2.5
  9
$TRACEWID
 40
1.0
  9
$TEXTSTYLE
  7
STANDARD
  9
$CLAYER
  8
0
  9
$CELTYPE
  6
BYLAYER
  9
$CECOLOR
 62
   256
  9
$DIMSCALE
 40
1.0
  9
$DIMASZ
 40
2.5
  9
$DIMEXO
 40
0.625
  9
$DIMDLI
 40
3.75
  9
$DIMRND
 40
0.0
  9
$DIMDLE
 40
0.0
  9
$DIMEXE
 40
1.25
  9
$DIMTP
 40
0.0
  9
$DIMTM
 40
0.0
  9
$DIMTXT
 40
2.5
  9
$DIMCEN
 40
2.5
  9
$DIMTSZ
 40
0.0
  9
$DIMTOL
 70
     0
  9
$DIMLIM
 70
     0
  9
$DIMTIH
 70
     0
  9
$DIMTOH
 70
     0
  9
$DIMSE1
 70
     0
  9
$DIMSE2
 70
     0
  9
$DIMTAD
 70
     1
  9
$DIMZIN
 70
     8
  9
$DIMBLK
  1

  9
$DIMASO
 70
     1
  9
$DIMSHO
 70
     1
  9
$DIMPOST
  1

  9
$DIMAPOST
  1

  9
$DIMALT
 70
     0
  9
$DIMALTD
 70
     3
  9
$DIMALTF
 40
0.03937007874016
  9
$DIMLFAC
 40
1.0
  9
$DIMTOFL
 70
     1
  9
$DIMTVP
 40
0.0
  9
$DIMTIX
 70
     0
  9
$DIMSOXD
 70
     0
  9
$DIMSAH
 70
     0
  9
$DIMBLK1
  1

  9
$DIMBLK2
  1

  9
$DIMSTYLE
  2
ISO-25
  9
$DIMCLRD
 70
     0
  9
$DIMCLRE
 70
     0
  9
$DIMCLRT
 70
     0
  9
$DIMTFAC
 40
1.0
  9
$DIMGAP
 40
0.625
  9
$LUNITS
 70
     2
  9
$LUPREC
 70
     4
  9
$SKETCHINC
 40
1.0
  9
$FILLETRAD
 40
0.0
  9
$AUNITS
 70
     0
  9
$AUPREC
 70
     0
  9
$MENU
  1
.
  9
$ELEVATION
 40
0.0
  9
$PELEVATION
 40
0.0
  9
$THICKNESS
 40
0.0
  9
$LIMCHECK
 70
     0
  9
$CHAMFERA
 40
0.0
  9
$CHAMFERB
 40
0.0
  9
$SKPOLY
 70
     0
  9
$TDCREATE
 40
2453353.758792488
  9
$TDUPDATE
 40
2458191.084175926
  9
$TDINDWG
 40
2440852.080755556
  9
$TDUSRTIMER
 40
2440852.080755556
  9
$USRTIMER
 70
     1
  9
$ANGBASE
 50
0.0
  9
$ANGDIR
 70
     0
  9
$PDMODE
 70
     0
  9
$PDSIZE
 40
0.0
  9
$PLINEWID
 40
9.0
  9
$COORDS
 70
     1
  9
$SPLFRAME
 70
     0
  9
$SPLINETYPE
 70
     6
  9
$SPLINESEGS
 70
     8
  9
$ATTDIA
 70
     0
  9
$ATTREQ
 70
     1
  9
$HANDLING
 70
     1
  9
$HANDSEED
  5
139
  9
$SURFTAB1
 70
     6
  9
$SURFTAB2
 70
     6
  9
$SURFTYPE
 70
     6
  9
$SURFU
 70
     6
  9
$SURFV
 70
     6
  9
$UCSNAME
  2

  9
$UCSORG
 10
0.0
 20
0.0
 30
0.0
  9
$UCSXDIR
 10
1.0
 20
0.0
 30
0.0
  9
$UCSYDIR
 10
0.0
 20
1.0
 30
0.0
  9
$PUCSNAME
  2

  9
$PUCSORG
 10
0.0
 20
0.0
 30
0.0
  9
$PUCSXDIR
 10
1.0
 20
0.0
 30
0.0
  9
$PUCSYDIR
 10
0.0
 20
1.0
 30
0.0
  9
$USERI1
 70
     0
  9
$USERI2
 70
     0
  9
$USERI3
 70
     0
  9
$USERI4
 70
     0
  9
$USERI5
 70
     0
  9
$USERR1
 40
0.0
  9
$USERR2
 40
0.0
  9
$USERR3
 40
0.0
  9
$USERR4
 40
0.0
  9
$USERR5
 40
0.0
  9
$WORLDVIEW
 70
     1
  9
$SHADEDGE
 70
     3
  9
$SHADEDIF
 70
    70
  9
$TILEMODE
 70
     1
  9
$MAXACTVP
 70
    64
  9
$PLIMCHECK
 70
     0
  9
$PEXTMIN
 10
1.000000000000000E+20
 20
1.000000000000000E+20
 30
1.000000000000000E+20
  9
$PEXTMAX
 10
-1.000000000000000E+20
 20
-1.000000000000000E+20
 30
-1.000000000000000E+20
  9
$PLIMMIN
 10
0.0
 20
0.0
  9
$PLIMMAX
 10
420.0
 20
297.0
  9
$UNITMODE
 70
     0
  9
$VISRETAIN
 70
     1
  9
$PLINEGEN
 70
     0
  9
$PSLTSCALE
 70
     1
  0
ENDSEC
  0
SECTION
  2
TABLES
  0
TABLE
  2
VPORT
 70
     1
  0
VPORT
  2
*ACTIVE
 70
     0
 10
0.0
 20
0.0
 11
1.0
 21
1.0
 12
623.5994045444866
 22
-46.86450085777746
 13
0.0
 23
0.0
 14
10.0
 24
10.0
 15
10.0
 25
10.0
 16
0.0
 26
0.0
 36
1.0
 17
0.0
 27
0.0
 37
0.0
 40
1303.310663685455
 41
1.664827586206897
 42
50.0
 43
0.0
 44
0.0
 50
0.0
 51
0.0
 71
    16
 72
  1000
 73
     1
 74
     3
 75
     0
 76
     0
 77
     0
 78
     0
  0
ENDTAB
  0
TABLE
  2
LTYPE
 70
     1
  0
LTYPE
  2
CONTINUOUS
 70
     0
  3
Solid line
 72
    65
 73
     0
 40
0.0
  0
ENDTAB
  0
TABLE
  2
LAYER
 70
     1
  0
LAYER
  2
0
 70
     0
 62
     7
  6
CONTINUOUS
  0
ENDTAB
  0
TABLE
  2
STYLE
 70
     1
  0
STYLE
  2
STANDARD
 70
     0
 40
0.0
 41
1.0
 50
0.0
 71
     0
 42
2.5
  3
txt
  4

  0
ENDTAB
  0
TABLE
  2
VIEW
 70
     0
  0
ENDTAB
  0
TABLE
  2
UCS
 70
     0
  0
ENDTAB
  0
TABLE
  2
APPID
 70
     1
  0
APPID
  2
ACAD
 70
     0
  0
ENDTAB
  0
TABLE
  2
DIMSTYLE
 70
     2
  0
DIMSTYLE
  2
STANDARD
 70
     0
  3

  4

  5

  6

  7

 40
1.0
 41
0.18
 42
0.0625
 43
0.38
 44
0.18
 45
0.0
 46
0.0
 47
0.0
 48
0.0
140
0.18
141
0.09
142
0.0
143
25.4
144
1.0
145
0.0
146
1.0
147
0.09
 71
     0
 72
     0
 73
     1
 74
     1
 75
     0
 76
     0
 77
     0
 78
     0
170
     0
171
     2
172
     0
173
     0
174
     0
175
     0
176
     0
177
     0
178
     0
  0
DIMSTYLE
  2
ISO-25
 70
     0
  3

  4

  5

  6

  7

 40
1.0
 41
2.5
 42
0.625
 43
3.75
 44
1.25
 45
0.0
 46
0.0
 47
0.0
 48
0.0
140
2.5
141
2.5
142
0.0
143
0.03937007874016
144
1.0
145
0.0
146
1.0
147
0.625
 71
     0
 72
     0
 73
     0
 74
     0
 75
     0
 76
     0
 77
     1
 78
     8
170
     0
171
     3
172
     1
173
     0
174
     0
175
     0
176
     0
177
     0
178
     0
  0
ENDTAB
  0
ENDSEC
  0
SECTION
  2
BLOCKS
  0
BLOCK
  8
0
  2
$MODEL_SPACE
 70
     0
 10
0.0
 20
0.0
 30
0.0
  3
$MODEL_SPACE
  1

  0
ENDBLK
  5
21
  8
0
  0
BLOCK
 67
     1
  8
0
  2
$PAPER_SPACE
 70
     0
 10
0.0
 20
0.0
 30
0.0
  3
$PAPER_SPACE
  1

  0
ENDBLK
  5
76
 67
     1
  8
0
  0
BLOCK
  8
0
  2
_HP012
 70
     0
 10
0.0
 20
0.0
 30
0.0
  3
_HP012
  1

  0
LINE
  5
40
  8
0
 10
0.0
 20
0.0
 30
0.0
 11
0.0
 21
150.0
 31
0.0
  0
POLYLINE
  5
41
  8
0
 66
     1
 10
0.0
 20
0.0
 30
0.0
  0
VERTEX
  5
EF
  8
0
 10
0.0
 20
150.0
 30
0.0
  0
VERTEX
  5
F0
  8
0
 10
75.0
 20
150.0
 30
0.0
  0
VERTEX
  5
F1
  8
0
 10
75.0
 20
125.0
 30
0.0
  0
VERTEX
  5
F2
  8
0
 10
0.0
 20
125.0
 30
0.0
  0
VERTEX
  5
F3
  8
0
 10
0.0
 20
150.0
 30
0.0
  0
SEQEND
  5
EE
  8
0
  0
INSERT
  5
42
  8
0
  6
CONTINUOUS
  2
*U3
 10
0.0
 20
0.0
 30
0.0
1001
ACAD
1002
{
1000
R14_HATCH_DATA
1000
42
1011
1.0
1021
0.0
1031
0.0
1021
0.0
1031
0.0
1011
0.0
1021
1.0
1031
0.0
1021
1.0
1031
0.0
1011
0.0
1021
0.0
1031
1.0
1021
0.0
1031
1.0
1040
0.0
1010
0.0
1020
0.0
1030
1.0
1020
0.0
1030
1.0
1000
SOLID
1070
     1
1070
     1
1071
        1
1071
        1
1071
        4
1070
     1
1040
0.0
1040
150.0
1040
75.0
1040
150.0
1070
     1
1040
75.0
1040
150.0
1040
75.0
1040
125.0
1070
     1
1040
75.0
1040
125.0
1040
0.0
1040
125.0
1070
     1
1040
0.0
1040
125.0
1040
0.0
1040
150.0
1071
        0
1070
     0
1070
     1
1071
        1
1040
0.0
1040
0.0
1040
0.0
1002
}
  0
POLYLINE
  5
43
  8
0
 66
     1
 10
0.0
 20
0.0
 30
0.0
  0
VERTEX
  5
FA
  8
0
 10
0.0
 20
100.0
 30
0.0
  0
VERTEX
  5
FB
  8
0
 10
25.0
 20
100.0
 30
0.0
  0
VERTEX
  5
FC
  8
0
 10
25.0
 20
50.0
 30
0.0
  0
VERTEX
  5
FD
  8
0
 10
0.0
 20
50.0
 30
0.0
  0
VERTEX
  5
FE
  8
0
 10
0.0
 20
100.0
 30
0.0
  0
SEQEND
  5
F9
  8
0
  0
INSERT
  5
44
  8
0
  6
CONTINUOUS
  2
*U4
 10
0.0
 20
0.0
 30
0.0
1001
ACAD
1002
{
1000
R14_HATCH_DATA
1000
44
1011
1.0
1021
0.0
1031
0.0
1021
0.0
1031
0.0
1011
0.0
1021
1.0
1031
0.0
1021
1.0
1031
0.0
1011
0.0
1021
0.0
1031
1.0
1021
0.0
1031
1.0
1040
0.0
1010
0.0
1020
0.0
1030
1.0
1020
0.0
1030
1.0
1000
SOLID
1070
     1
1070
     1
1071
        1
1071
        1
1071
        4
1070
     1
1040
0.0
1040
100.0
1040
25.0
1040
100.0
1070
     1
1040
25.0
1040
100.0
1040
25.0
1040
50.0
1070
     1
1040
25.0
1040
50.0
1040
0.0
1040
50.0
1070
     1
1040
0.0
1040
50.0
1040
0.0
1040
100.0
1071
        0
1070
     0
1070
     1
1071
        1
1040
0.0
1040
0.0
1040
0.0
1002
}
  0
ENDBLK
  5
E2
  8
0
  0
BLOCK
  8
0
  2
NRE-423
 70
     0
 10
0.0
 20
0.0
 30
0.0
  3
NRE-423
  1

  0
POLYLINE
  5
CC
  8
0
 66
     1
 10
0.0
 20
0.0
 30
0.0
  0
VERTEX
  5
105
  8
0
 10
0.0000000000313776
 20
-200.0000000000189
 30
0.0
  0
VERTEX
  5
106
  8
0
 10
799.9999999999686
 20
-199.9999999999806
 30
0.0
  0
VERTEX
  5
107
  8
0
 10
1485.999999999969
 20
-570.6588728197189
 30
0.0
  0
VERTEX
  5
108
  8
0
 10
1699.99999999997
 20
-199.9999999999806
 30
0.0
  0
VERTEX
  5
109
  8
0
 10
1699.999999999967
 20
200.000000000019
 30
0.0
  0
VERTEX
  5
10A
  8
0
 10
-0.0000000000313776
 20
200.0000000000189
 30
0.0
  0
VERTEX
  5
10B
  8
0
 10
0.0000000000313776
 20
-200.0000000000189
 30
0.0
  0
SEQEND
  5
104
  8
0
  0
POLYLINE
  5
CD
  8
0
 62
     1
 66
     1
 10
0.0
 20
0.0
 30
0.0
 40
9.0
 41
9.0
  0
VERTEX
  5
10D
  8
0
 62
     1
 10
-0.0000000000019616
 20
12.5
 30
0.0
  0
VERTEX
  5
10E
  8
0
 62
     1
 10
1699.999999999968
 20
12.50000000001919
 30
0.0
  0
SEQEND
  5
10C
  8
0
 62
     1
  0
POLYLINE
  5
CE
  8
0
 62
     1
 66
     1
 10
0.0
 20
0.0
 30
0.0
 40
9.0
 41
9.0
  0
VERTEX
  5
110
  8
0
 62
     1
 10
0.0000000000021404
 20
-12.5
 30
0.0
  0
VERTEX
  5
111
  8
0
 62
     1
 10
1699.999999999969
 20
-12.49999999998082
 30
0.0
  0
SEQEND
  5
10F
  8
0
 62
     1
  0
INSERT
  5
CF
  8
0
  2
_HP012
 10
31.30306232861199
 20
-38.81076160005497
 30
0.0
 50
270.0
  0
TEXT
  5
D0
  8
0
 10
391.6175338337029
 20
-125.4052961666822
 30
0.0
 40
50.0
  1
1700 0°/30°
  0
TEXT
  5
D1
  8
0
 62
     2
 10
149.6872161231671
 20
133.3532822625927
 30
0.0
 40
25.0
  1
DL 03/18
  0
POLYLINE
  5
D2
  8
0
 62
     1
 66
     1
 10
0.0
 20
0.0
 30
0.0
 40
9.0
 41
9.0
  0
VERTEX
  5
113
  8
0
 62
     1
 10
246.0781060665445
 20
12.50000000000277
 30
0.0
  0
VERTEX
  5
114
  8
0
 62
     1
 10
403.9218939334091
 20
-12.49999999999544
 30
0.0
  0
SEQEND
  5
112
  8
0
 62
     1
  0
POLYLINE
  5
D3
  8
0
 62
     1
 66
     1
 10
0.0
 20
0.0
 30
0.0
 40
9.0
 41
9.0
  0
VERTEX
  5
116
  8
0
 62
     1
 10
596.0781060665483
 20
-12.49999999994232
 30
0.0
  0
VERTEX
  5
117
  8
0
 62
     1
 10
753.921893933413
 20
-37.49999999994053
 30
0.0
  0
SEQEND
  5
115
  8
0
 62
     1
  0
POLYLINE
  5
D4
  8
0
 62
     1
 66
     1
 10
0.0
 20
0.0
 30
0.0
 40
9.0
 41
9.0
  0
VERTEX
  5
119
  8
0
 62
     1
 10
517.3141695771031
 20
-37.49999999999416
 30
0.0
  0
VERTEX
  5
11A
  8
0
 62
     1
 10
753.9218939337347
 20
-37.4999999999915
 30
0.0
  0
SEQEND
  5
118
  8
0
 62
     1
  0
POLYLINE
  5
D5
  8
0
 66
     1
 10
0.0
 20
0.0
 30
0.0
  0
VERTEX
  5
11B
  8
0
 10
753.9218939337347
 20
-37.4999999999915
 30
0.0
  0
VERTEX
  5
11C
  8
0
 10
791.1715209849642
 20
-43.98029979422312
 30
0.0
  0
VERTEX
  5
11D
  8
0
 10
828.1645722466824
 20
-51.54497077239853
 30
0.0
  0
VERTEX
  5
11E
  8
0
 10
864.908904425778
 20
-60.14115512551562
 30
0.0
  0
VERTEX
  5
11F
  8
0
 10
901.4123742291388
 20
-69.71599504457235
 30
0.0
  0
VERTEX
  5
120
  8
0
 10
937.6828383636533
 20
-80.21663272056665
 30
0.0
  0
VERTEX
  5
121
  8
0
 10
973.7281535362096
 20
-91.59021034449646
 30
0.0
  0
VERTEX
  5
122
  8
0
 10
1009.556176453696
 20
-103.7838701073597
 30
0.0
  0
VERTEX
  5
123
  8
0
 10
1045.174763823001
 20
-116.7447542001543
 30
0.0
  0
VERTEX
  5
124
  8
0
 10
1080.591772351012
 20
-130.4200048138783
 30
0.0
  0
VERTEX
  5
125
  8
0
 10
1115.815058744618
 20
-144.7567641395294
 30
0.0
  0
VERTEX
  5
126
  8
0
 10
1150.852479710707
 20
-159.7021743681058
 30
0.0
  0
VERTEX
  5
127
  8
0
 10
1185.711891956168
 20
-175.2033776906053
 30
0.0
  0
VERTEX
  5
128
  8
0
 10
1220.401152187888
 20
-191.2075162980258
 30
0.0
  0
VERTEX
  5
129
  8
0
 10
1254.928117112755
 20
-207.6617323813653
 30
0.0
  0
VERTEX
  5
12A
  8
0
 10
1289.300643437659
 20
-224.5131681316217
 30
0.0
  0
VERTEX
  5
12B
  8
0
 10
1323.526587869487
 20
-241.7089657397929
 30
0.0
  0
VERTEX
  5
12C
  8
0
 10
1357.613807115127
 20
-259.196267396877
 30
0.0
  0
VERTEX
  5
12D
  8
0
 10
1391.570157881468
 20
-276.9222152938718
 30
0.0
  0
VERTEX
  5
12E
  8
0
 10
1425.403496875398
 20
-294.8339516217752
 30
0.0
  0
VERTEX
  5
12F
  8
0
 10
1459.121680803805
 20
-312.8786185715852
 30
0.0
  0
VERTEX
  5
130
  8
0
 10
1492.732566373578
 20
-331.0033583342998
 30
0.0
  0
VERTEX
  5
131
  8
0
 10
1526.244010291604
 20
-349.1553131009168
 30
0.0
  0
VERTEX
  5
132
  8
0
 10
1559.663869264772
 20
-367.2816250624342
 30
0.0
  0
VERTEX
  5
133
  8
0
 10
1592.999999911991
 20
-385.3294363623131
 30
0.0
  0
SEQEND
  5
134
  8
0
  0
POLYLINE
  5
D6
  8
0
 62
     1
 66
     1
 10
0.0
 20
0.0
 30
0.0
 40
9.0
 41
9.0
  0
VERTEX
  5
136
  8
0
 62
     1
 10
753.921893933413
 20
-37.49999999994053
 30
0.0
 42
-0.0598576065456284
  0
VERTEX
  5
137
  8
0
 62
     1
 10
1108.191915811261
 20
-141.5939113365932
 30
0.0
 42
-0.0267900792037757
  0
VERTEX
  5
138
  8
0
 62
     1
 10
1592.99999999997
 20
-385.3294364098498
 30
0.0
 42
-15.79744883098536
  0
SEQEND
  5
135
  8
0
 62
     1
  0
INSERT
  5
D7
  8
0
  2
_HP012
 10
1584.611032498301
 20
44.06407565027956
 30
0.0
 50
90.0
  0
INSERT
  5
D8
  8
0
  2
_HP012
 10
1539.675351306208
 20
-313.281579543984
 30
0.0
 50
61.2252753611745
  0
TEXT
  5
D9
  8
0
 10
715.5505573732245
 20
123.1383167042093
 30
0.0
 40
50.0
  1
ChRei
  0
TEXT
  5
DA
  8
0
 10
632.8414834569718
 20
57.33328709200811
 30
0.0
 40
50.0
  1
NRE-423
  0
ENDBLK
  5
E4
  8
0
  0
BLOCK
  8
0
  2
*U3
 70
     1
 10
0.0
 20
0.0
 30
0.0
  3
*U3
  1

  0
SOLID
  5
F5
  8
0
  6
CONTINUOUS
 10
0.0
 20
125.0
 30
0.0
 11
0.0
 21
150.0
 31
0.0
 12
75.0
 22
125.0
 32
0.0
 13
75.0
 23
125.0
 33
0.0
  0
SOLID
  5
F6
  8
0
  6
CONTINUOUS
 10
75.0
 20
125.0
 30
0.0
 11
0.0
 21
150.0
 31
0.0
 12
75.0
 22
150.0
 32
0.0
 13
75.0
 23
150.0
 33
0.0
  0
ENDBLK
  5
F8
  8
0
  0
BLOCK
  8
0
  2
*U4
 70
     1
 10
0.0
 20
0.0
 30
0.0
  3
*U4
  1

  0
SOLID
  5
100
  8
0
  6
CONTINUOUS
 10
0.0
 20
50.0
 30
0.0
 11
0.0
 21
100.0
 31
0.0
 12
-25.0
 22
50.0
 32
0.0
 13
-25.0
 23
50.0
 33
0.0
210
0.0
220
0.0
230
-1.0
  0
SOLID
  5
101
  8
0
  6
CONTINUOUS
 10
-25.0
 20
50.0
 30
0.0
 11
0.0
 21
100.0
 31
0.0
 12
-25.0
 22
100.0
 32
0.0
 13
-25.0
 23
100.0
 33
0.0
210
0.0
220
0.0
230
-1.0
  0
ENDBLK
  5
103
  8
0
  0
ENDSEC
  0
SECTION
  2
ENTITIES
  0
INSERT
  5
DD
  8
0
  2
NRE-423
 10
0.0
 20
0.0
 30
0.0
  0
ENDSEC
  0
EOF
