  0
SECTION
  2
HEADER
  9
$ACADVER
  1
AC1009
  9
$DWGCODEPAGE
  3
ansi_1252
  9
$INSBASE
 10
0.0
 20
0.0
 30
0.0
  9
$EXTMIN
 10
142.4402133739197
 20
-389.507958841018
 30
0.0
  9
$EXTMAX
 10
1360.877713373921
 20
313.1017686823054
 30
0.0
  9
$LIMMIN
 10
0.0
 20
0.0
  9
$LIMMAX
 10
420.0
 20
297.0
  9
$ORTHOMODE
 70
     0
  9
$REGENMODE
 70
     1
  9
$FILLMODE
 70
     1
  9
$QTEXTMODE
 70
     0
  9
$MIRRTEXT
 70
     0
  9
$DRAGMODE
 70
     2
  9
$LTSCALE
 40
1.0
  9
$OSMODE
 70
    37
  9
$ATTMODE
 70
     1
  9
$TEXTSIZE
 40
20.0
  9
$TRACEWID
 40
1.0
  9
$TEXTSTYLE
  7
STANDARD
  9
$CLAYER
  8
0
  9
$CELTYPE
  6
BYLAYER
  9
$CECOLOR
 62
   256
  9
$DIMSCALE
 40
1.0
  9
$DIMASZ
 40
2.5
  9
$DIMEXO
 40
0.625
  9
$DIMDLI
 40
3.75
  9
$DIMRND
 40
0.0
  9
$DIMDLE
 40
0.0
  9
$DIMEXE
 40
1.25
  9
$DIMTP
 40
0.0
  9
$DIMTM
 40
0.0
  9
$DIMTXT
 40
2.5
  9
$DIMCEN
 40
2.5
  9
$DIMTSZ
 40
0.0
  9
$DIMTOL
 70
     0
  9
$DIMLIM
 70
     0
  9
$DIMTIH
 70
     0
  9
$DIMTOH
 70
     0
  9
$DIMSE1
 70
     0
  9
$DIMSE2
 70
     0
  9
$DIMTAD
 70
     1
  9
$DIMZIN
 70
     8
  9
$DIMBLK
  1

  9
$DIMASO
 70
     1
  9
$DIMSHO
 70
     1
  9
$DIMPOST
  1

  9
$DIMAPOST
  1

  9
$DIMALT
 70
     0
  9
$DIMALTD
 70
     3
  9
$DIMALTF
 40
0.03937007874016
  9
$DIMLFAC
 40
1.0
  9
$DIMTOFL
 70
     1
  9
$DIMTVP
 40
0.0
  9
$DIMTIX
 70
     0
  9
$DIMSOXD
 70
     0
  9
$DIMSAH
 70
     0
  9
$DIMBLK1
  1

  9
$DIMBLK2
  1

  9
$DIMSTYLE
  2
ISO-25
  9
$DIMCLRD
 70
     0
  9
$DIMCLRE
 70
     0
  9
$DIMCLRT
 70
     0
  9
$DIMTFAC
 40
1.0
  9
$DIMGAP
 40
0.625
  9
$LUNITS
 70
     2
  9
$LUPREC
 70
     4
  9
$SKETCHINC
 40
1.0
  9
$FILLETRAD
 40
0.0
  9
$AUNITS
 70
     0
  9
$AUPREC
 70
     0
  9
$MENU
  1
.
  9
$ELEVATION
 40
0.0
  9
$PELEVATION
 40
0.0
  9
$THICKNESS
 40
0.0
  9
$LIMCHECK
 70
     0
  9
$CHAMFERA
 40
0.0
  9
$CHAMFERB
 40
0.0
  9
$SKPOLY
 70
     0
  9
$TDCREATE
 40
2453353.800459155
  9
$TDUPDATE
 40
2456817.137697778
  9
$TDINDWG
 40
9763408.07478963
  9
$TDUSRTIMER
 40
9763408.07478963
  9
$USRTIMER
 70
     1
  9
$ANGBASE
 50
0.0
  9
$ANGDIR
 70
     0
  9
$PDMODE
 70
     0
  9
$PDSIZE
 40
0.0
  9
$PLINEWID
 40
9.0
  9
$COORDS
 70
     1
  9
$SPLFRAME
 70
     0
  9
$SPLINETYPE
 70
     6
  9
$SPLINESEGS
 70
     8
  9
$ATTDIA
 70
     0
  9
$ATTREQ
 70
     1
  9
$HANDLING
 70
     1
  9
$HANDSEED
  5
303
  9
$SURFTAB1
 70
     6
  9
$SURFTAB2
 70
     6
  9
$SURFTYPE
 70
     6
  9
$SURFU
 70
     6
  9
$SURFV
 70
     6
  9
$UCSNAME
  2

  9
$UCSORG
 10
0.0
 20
0.0
 30
0.0
  9
$UCSXDIR
 10
1.0
 20
0.0
 30
0.0
  9
$UCSYDIR
 10
0.0
 20
1.0
 30
0.0
  9
$PUCSNAME
  2

  9
$PUCSORG
 10
0.0
 20
0.0
 30
0.0
  9
$PUCSXDIR
 10
1.0
 20
0.0
 30
0.0
  9
$PUCSYDIR
 10
0.0
 20
1.0
 30
0.0
  9
$USERI1
 70
     0
  9
$USERI2
 70
     0
  9
$USERI3
 70
     0
  9
$USERI4
 70
     0
  9
$USERI5
 70
     0
  9
$USERR1
 40
0.0
  9
$USERR2
 40
0.0
  9
$USERR3
 40
0.0
  9
$USERR4
 40
0.0
  9
$USERR5
 40
0.0
  9
$WORLDVIEW
 70
     1
  9
$SHADEDGE
 70
     3
  9
$SHADEDIF
 70
    70
  9
$TILEMODE
 70
     1
  9
$MAXACTVP
 70
    64
  9
$PLIMCHECK
 70
     0
  9
$PEXTMIN
 10
1.000000000000000E+20
 20
1.000000000000000E+20
 30
1.000000000000000E+20
  9
$PEXTMAX
 10
-1.000000000000000E+20
 20
-1.000000000000000E+20
 30
-1.000000000000000E+20
  9
$PLIMMIN
 10
0.0
 20
0.0
  9
$PLIMMAX
 10
420.0
 20
297.0
  9
$UNITMODE
 70
     0
  9
$VISRETAIN
 70
     1
  9
$PLINEGEN
 70
     0
  9
$PSLTSCALE
 70
     1
  0
ENDSEC
  0
SECTION
  2
TABLES
  0
TABLE
  2
VPORT
 70
     1
  0
VPORT
  2
*ACTIVE
 70
     0
 10
0.0
 20
0.0
 11
1.0
 21
1.0
 12
778.8239424103989
 22
-69.08758088558344
 13
0.0
 23
0.0
 14
10.0
 24
10.0
 15
10.0
 25
10.0
 16
0.0
 26
0.0
 36
1.0
 17
0.0
 27
0.0
 37
0.0
 40
1147.477434185226
 41
1.664827586206896
 42
50.0
 43
0.0
 44
0.0
 50
0.0
 51
0.0
 71
    16
 72
  1000
 73
     1
 74
     1
 75
     0
 76
     0
 77
     0
 78
     0
  0
ENDTAB
  0
TABLE
  2
LTYPE
 70
     1
  0
LTYPE
  2
CONTINUOUS
 70
     0
  3
Solid line
 72
    65
 73
     0
 40
0.0
  0
ENDTAB
  0
TABLE
  2
LAYER
 70
     1
  0
LAYER
  2
0
 70
     0
 62
     7
  6
CONTINUOUS
  0
ENDTAB
  0
TABLE
  2
STYLE
 70
     1
  0
STYLE
  2
STANDARD
 70
     0
 40
0.0
 41
1.0
 50
0.0
 71
     0
 42
2.5
  3
txt
  4

  0
ENDTAB
  0
TABLE
  2
VIEW
 70
     0
  0
ENDTAB
  0
TABLE
  2
UCS
 70
     0
  0
ENDTAB
  0
TABLE
  2
APPID
 70
     1
  0
APPID
  2
ACAD
 70
     0
  0
ENDTAB
  0
TABLE
  2
DIMSTYLE
 70
     2
  0
DIMSTYLE
  2
STANDARD
 70
     0
  3

  4

  5

  6

  7

 40
1.0
 41
0.18
 42
0.0625
 43
0.38
 44
0.18
 45
0.0
 46
0.0
 47
0.0
 48
0.0
140
0.18
141
0.09
142
0.0
143
25.4
144
1.0
145
0.0
146
1.0
147
0.09
 71
     0
 72
     0
 73
     1
 74
     1
 75
     0
 76
     0
 77
     0
 78
     0
170
     0
171
     2
172
     0
173
     0
174
     0
175
     0
176
     0
177
     0
178
     0
  0
DIMSTYLE
  2
ISO-25
 70
     0
  3

  4

  5

  6

  7

 40
1.0
 41
2.5
 42
0.625
 43
3.75
 44
1.25
 45
0.0
 46
0.0
 47
0.0
 48
0.0
140
2.5
141
2.5
142
0.0
143
0.03937007874016
144
1.0
145
0.0
146
1.0
147
0.625
 71
     0
 72
     0
 73
     0
 74
     0
 75
     0
 76
     0
 77
     1
 78
     8
170
     0
171
     3
172
     1
173
     0
174
     0
175
     0
176
     0
177
     0
178
     0
  0
ENDTAB
  0
ENDSEC
  0
SECTION
  2
BLOCKS
  0
BLOCK
  8
0
  2
$MODEL_SPACE
 70
     0
 10
0.0
 20
0.0
 30
0.0
  3
$MODEL_SPACE
  1

  0
ENDBLK
  5
21
  8
0
  0
BLOCK
 67
     1
  8
0
  2
$PAPER_SPACE
 70
     0
 10
0.0
 20
0.0
 30
0.0
  3
$PAPER_SPACE
  1

  0
ENDBLK
  5
76
 67
     1
  8
0
  0
BLOCK
  8
0
  2
NRE-206
 70
     0
 10
0.0
 20
0.0
 30
0.0
  3
NRE-206
  1

  0
LINE
  5
288
  8
0
 62
     1
 10
-809.9999999999997
 20
347.5000000000002
 30
0.0
 11
-800.0000000000003
 21
347.4999999999999
 31
0.0
  0
LINE
  5
289
  8
0
 62
     1
 10
-998.3755857718671
 20
-351.3048637616622
 30
0.0
 11
-1003.742949533528
 21
-342.8673637616617
 31
0.0
  0
LINE
  5
28A
  8
0
 62
     1
 10
-998.3755857718672
 20
351.3048637616612
 30
0.0
 11
-1003.742949533529
 21
342.8673637616612
 31
0.0
  0
LINE
  5
28B
  8
0
 62
     7
 10
-998.3755857718671
 20
-351.3048637616622
 30
0.0
 11
-800.0
 21
-347.5000000000012
 31
0.0
  0
LINE
  5
28C
  8
0
 62
     7
 10
-800.0
 20
-347.5000000000012
 30
0.0
 11
-800.0000000000003
 21
347.4999999999999
 31
0.0
  0
LINE
  5
28D
  8
0
 62
     7
 10
-800.0000000000003
 20
347.4999999999999
 30
0.0
 11
-998.3755857718672
 21
351.3048637616612
 31
0.0
  0
LINE
  5
28E
  8
0
 62
     7
 10
-998.3755857718672
 20
351.3048637616612
 30
0.0
 11
-1218.4375
 21
5.367363761661693
 31
0.0
  0
LINE
  5
28F
  8
0
 62
     7
 10
-1218.4375
 20
5.367363761661693
 30
0.0
 11
-1218.4375
 21
-5.367363761662261
 31
0.0
  0
LINE
  5
290
  8
0
 62
     7
 10
-1218.4375
 20
-5.367363761662261
 30
0.0
 11
-998.3755857718671
 21
-351.3048637616622
 31
0.0
  0
LINE
  5
291
  8
0
 62
     7
 10
-799.9999999999994
 20
-0.0000000000001705
 30
0.0
 11
-800.0
 21
-200.0000000000002
 31
0.0
  0
LINE
  5
292
  8
0
 62
     7
 10
-800.0
 20
-200.0000000000002
 30
0.0
 11
-799.9999999999989
 21
199.9999999999998
 31
0.0
  0
LINE
  5
293
  8
0
 62
     7
 10
-799.9999999999989
 20
199.9999999999998
 30
0.0
 11
-0.0000000000004547
 21
199.9999999999998
 31
0.0
  0
LINE
  5
294
  8
0
 62
     7
 10
-0.0000000000004547
 20
199.9999999999998
 30
0.0
 11
0.0000000000004547
 21
-199.9999999999998
 31
0.0
  0
LINE
  5
295
  8
0
 62
     7
 10
0.0000000000004547
 20
-199.9999999999998
 30
0.0
 11
-800.0
 21
-200.0000000000002
 31
0.0
  0
LINE
  5
296
  8
0
 62
     7
 10
-800.0
 20
-200.0000000000002
 30
0.0
 11
-799.9999999999989
 21
199.9999999999998
 31
0.0
  0
LINE
  5
297
  8
0
 62
     7
 10
-998.3755857718671
 20
-351.3048637616622
 30
0.0
 11
-1213.070136238339
 21
-13.80486376166272
 31
0.0
  0
POLYLINE
  5
298
  8
0
 66
     1
 10
0.0
 20
0.0
 30
0.0
 70
     1
  0
VERTEX
  5
2B7
  8
0
 10
-213.7273166232874
 20
-145.3535276799868
 30
0.0
  0
VERTEX
  5
2B8
  8
0
 10
-13.72731662328738
 20
-145.3535276799874
 30
0.0
  0
VERTEX
  5
2B9
  8
0
 10
-13.72731662328783
 20
-45.35352767998796
 30
0.0
  0
VERTEX
  5
2BA
  8
0
 10
-213.7273166232878
 20
-45.35352767998739
 30
0.0
  0
SEQEND
  5
2B6
  8
0
  0
POLYLINE
  5
299
  8
0
 66
     1
 10
0.0
 20
0.0
 30
0.0
  0
VERTEX
  5
2BB
  8
0
 10
-1041.314495865162
 20
-283.8048637616624
 30
0.0
  0
VERTEX
  5
2BC
  8
0
 10
-1023.459227419471
 20
-272.4508221113283
 30
0.0
  0
VERTEX
  5
2BD
  8
0
 10
-1005.518028846705
 20
-261.0738815137147
 30
0.0
  0
VERTEX
  5
2BE
  8
0
 10
-987.4872010860488
 20
-249.7065368088673
 30
0.0
  0
VERTEX
  5
2BF
  8
0
 10
-969.363045076686
 20
-238.3812828368316
 30
0.0
  0
VERTEX
  5
2C0
  8
0
 10
-951.1418617578017
 20
-227.1306144376531
 30
0.0
  0
VERTEX
  5
2C1
  8
0
 10
-932.819952068581
 20
-215.9870264513774
 30
0.0
  0
VERTEX
  5
2C2
  8
0
 10
-914.3936169482081
 20
-204.9830137180499
 30
0.0
  0
VERTEX
  5
2C3
  8
0
 10
-895.859157335868
 20
-194.1510710777163
 30
0.0
  0
VERTEX
  5
2C4
  8
0
 10
-877.2128741707453
 20
-183.523693370422
 30
0.0
  0
VERTEX
  5
2C5
  8
0
 10
-858.4510683920246
 20
-173.1333754362125
 30
0.0
  0
VERTEX
  5
2C6
  8
0
 10
-839.5700409388909
 20
-163.0126121151336
 30
0.0
  0
VERTEX
  5
2C7
  8
0
 10
-820.5660927505286
 20
-153.1938982472305
 30
0.0
  0
VERTEX
  5
2C8
  8
0
 10
-801.4355247661226
 20
-143.709728672549
 30
0.0
  0
VERTEX
  5
2C9
  8
0
 10
-782.1746379248576
 20
-134.5925982311345
 30
0.0
  0
VERTEX
  5
2CA
  8
0
 10
-762.7797331659182
 20
-125.8750017630325
 30
0.0
  0
VERTEX
  5
2CB
  8
0
 10
-743.2471114284891
 20
-117.5894341082887
 30
0.0
  0
VERTEX
  5
2CC
  8
0
 10
-723.5730736517553
 20
-109.7683901069484
 30
0.0
  0
VERTEX
  5
2CD
  8
0
 10
-703.7539207749011
 20
-102.4443645990574
 30
0.0
  0
VERTEX
  5
2CE
  8
0
 10
-683.7859537371115
 20
-95.64985242466102
 30
0.0
  0
VERTEX
  5
2CF
  8
0
 10
-663.665473477571
 20
-89.41734842380488
 30
0.0
  0
VERTEX
  5
2D0
  8
0
 10
-643.3887809354644
 20
-83.77934743653449
 30
0.0
  0
VERTEX
  5
2D1
  8
0
 10
-622.9521770499764
 20
-78.76834430289541
 30
0.0
  0
VERTEX
  5
2D2
  8
0
 10
-602.3519627602918
 20
-74.41683386293319
 30
0.0
  0
VERTEX
  5
2D3
  8
0
 10
-581.5844391043637
 20
-70.75731097233675
 30
0.0
  0
SEQEND
  5
2D4
  8
0
  0
POLYLINE
  5
29A
  8
0
 66
     1
 10
0.0
 20
0.0
 30
0.0
 40
9.0
 41
9.0
  0
VERTEX
  5
2D6
  8
0
 10
-545.2342082323182
 20
-65.00000000000006
 30
0.0
  0
VERTEX
  5
2D7
  8
0
 10
-213.7273166232881
 20
-65.00000000000051
 30
0.0
  0
SEQEND
  5
2D5
  8
0
  0
POLYLINE
  5
29B
  8
0
 66
     1
 10
0.0
 20
0.0
 30
0.0
 40
9.0
 41
9.0
  0
VERTEX
  5
2D9
  8
0
 10
-545.2342082323182
 20
-65.00000000000006
 30
0.0
  0
VERTEX
  5
2DA
  8
0
 10
-134.8403597784393
 20
0.0000000000005116
 30
0.0
  0
SEQEND
  5
2D8
  8
0
  0
POLYLINE
  5
29C
  8
0
 66
     1
 10
0.0
 20
0.0
 30
0.0
 40
9.0
 41
9.0
  0
VERTEX
  5
2DC
  8
0
 10
-263.8449102002946
 20
-0.0000000000005116
 30
0.0
  0
VERTEX
  5
2DD
  8
0
 10
0.0000000000011369
 20
0.0000000000000568
 30
0.0
  0
SEQEND
  5
2DB
  8
0
  0
POLYLINE
  5
29D
  8
0
 66
     1
 10
0.0
 20
0.0
 30
0.0
 40
9.0
 41
9.0
  0
VERTEX
  5
2DF
  8
0
 10
-1041.314495865162
 20
-283.8048637616624
 30
0.0
 42
-0.0445250972733399
  0
VERTEX
  5
2E0
  8
0
 10
-750.7747069432364
 20
-120.7223670321935
 30
0.0
 42
-0.071259682538647
  0
VERTEX
  5
2E1
  8
0
 10
-545.2342082323182
 20
-65.00000000000006
 30
0.0
 42
-6.77841166370443
  0
SEQEND
  5
2DE
  8
0
  0
POLYLINE
  5
29E
  8
0
 66
     1
 10
0.0
 20
0.0
 30
0.0
  0
VERTEX
  5
2E2
  8
0
 10
-1106.297167885934
 20
176.9942728212458
 30
0.0
  0
VERTEX
  5
2E3
  8
0
 10
-1075.668935806817
 20
158.4170050432606
 30
0.0
  0
VERTEX
  5
2E4
  8
0
 10
-1044.340625438395
 20
141.1578024308846
 30
0.0
  0
VERTEX
  5
2E5
  8
0
 10
-1012.354651266863
 20
125.1697648695634
 30
0.0
  0
VERTEX
  5
2E6
  8
0
 10
-979.7534277784175
 20
110.4059922447429
 30
0.0
  0
VERTEX
  5
2E7
  8
0
 10
-946.5793694592561
 20
96.81958444186893
 30
0.0
  0
VERTEX
  5
2E8
  8
0
 10
-912.8748907955745
 20
84.36364134638723
 30
0.0
  0
VERTEX
  5
2E9
  8
0
 10
-878.6824062735693
 20
72.99126284374358
 30
0.0
  0
VERTEX
  5
2EA
  8
0
 10
-844.0443303794369
 20
62.65554881938382
 30
0.0
  0
VERTEX
  5
2EB
  8
0
 10
-809.0030775993738
 20
53.30959915875369
 30
0.0
  0
VERTEX
  5
2EC
  8
0
 10
-773.6010624195761
 20
44.90651374729904
 30
0.0
  0
VERTEX
  5
2ED
  8
0
 10
-737.8806993262406
 20
37.39939247046561
 30
0.0
  0
VERTEX
  5
2EE
  8
0
 10
-701.8844028055635
 20
30.74133521369922
 30
0.0
  0
VERTEX
  5
2EF
  8
0
 10
-665.6545873437412
 20
24.88544186244566
 30
0.0
  0
VERTEX
  5
2F0
  8
0
 10
-629.2336674269703
 20
19.78481230215071
 30
0.0
  0
VERTEX
  5
2F1
  8
0
 10
-592.6640575414472
 20
15.39254641826018
 30
0.0
  0
VERTEX
  5
2F2
  8
0
 10
-555.9881721733681
 20
11.66174409621984
 30
0.0
  0
VERTEX
  5
2F3
  8
0
 10
-519.2484258089295
 20
8.545505221475491
 30
0.0
  0
VERTEX
  5
2F4
  8
0
 10
-482.4872329343278
 20
5.996929679472933
 30
0.0
  0
VERTEX
  5
2F5
  8
0
 10
-445.7470080357597
 20
3.969117355657957
 30
0.0
  0
VERTEX
  5
2F6
  8
0
 10
-409.0701655994212
 20
2.415168135476351
 30
0.0
  0
VERTEX
  5
2F7
  8
0
 10
-372.4991201115091
 20
1.288181904373909
 30
0.0
  0
VERTEX
  5
2F8
  8
0
 10
-336.0762860582196
 20
0.5412585477964235
 30
0.0
  0
VERTEX
  5
2F9
  8
0
 10
-299.8440779257491
 20
0.127497951189686
 30
0.0
  0
VERTEX
  5
2FA
  8
0
 10
-263.8449103002946
 20
-0.0000000000005116
 30
0.0
  0
SEQEND
  5
2FB
  8
0
  0
POLYLINE
  5
29F
  8
0
 66
     1
 10
0.0
 20
0.0
 30
0.0
 40
9.0
 41
9.0
  0
VERTEX
  5
2FD
  8
0
 10
-1108.406542885933
 20
178.3361137616616
 30
0.0
 42
0.1142958019889132
  0
VERTEX
  5
2FE
  8
0
 10
-646.1184741425228
 20
22.05562032767847
 30
0.0
 42
0.0351433666687748
  0
VERTEX
  5
2FF
  8
0
 10
-263.8449102002946
 20
-0.0000000000005116
 30
0.0
 42
9.024148202655939
  0
SEQEND
  5
2FC
  8
0
  0
TEXT
  5
2A0
  8
0
 62
     2
 10
-987.8300050498231
 20
313.6599337684266
 30
0.0
 40
20.0
  1
DL 06/14
  0
TEXT
  5
2A1
  8
0
 10
-499.2764755192118
 20
107.8305895739547
 30
0.0
 40
40.0
  1
NRE-206
  0
TEXT
  5
2A2
  8
0
 10
-471.3892297709811
 20
56.67791799189644
 30
0.0
 40
40.0
  1
HaWun
  0
TEXT
  5
2A3
  8
0
 10
-560.8560914960542
 20
-154.2168983594668
 30
0.0
 40
20.0
  1
Hafenstrasse
  0
POLYLINE
  5
2A4
  8
0
 66
     1
 10
0.0
 20
0.0
 30
0.0
 40
9.0
 41
9.0
  0
VERTEX
  5
301
  8
0
 10
0.0
 20
-25.0
 30
0.0
  0
VERTEX
  5
302
  8
0
 10
-292.6841476453176
 20
-25.0
 30
0.0
  0
SEQEND
  5
300
  8
0
  0
ENDBLK
  5
2AC
  8
0
  0
ENDSEC
  0
SECTION
  2
ENTITIES
  0
INSERT
  5
2A7
  8
0
  2
NRE-206
 10
1360.87771337392
 20
-38.20309507935581
 30
0.0
  0
ENDSEC
  0
EOF
