  0
SECTION
  2
HEADER
  9
$ACADVER
  1
AC1009
  9
$DWGCODEPAGE
  3
ansi_1252
  9
$INSBASE
 10
0.0
 20
0.0
 30
0.0
  9
$EXTMIN
 10
-0.1200931246960977
 20
-199.9999639441002
 30
0.0
  9
$EXTMAX
 10
1155.495130712755
 20
303.3423196315176
 30
0.0
  9
$LIMMIN
 10
0.0
 20
0.0
  9
$LIMMAX
 10
12.0
 20
9.0
  9
$ORTHOMODE
 70
     0
  9
$REGENMODE
 70
     1
  9
$FILLMODE
 70
     1
  9
$QTEXTMODE
 70
     0
  9
$MIRRTEXT
 70
     0
  9
$DRAGMODE
 70
     2
  9
$LTSCALE
 40
1.0
  9
$OSMODE
 70
    37
  9
$ATTMODE
 70
     1
  9
$TEXTSIZE
 40
30.0
  9
$TRACEWID
 40
0.05
  9
$TEXTSTYLE
  7
STANDARD
  9
$CLAYER
  8
0
  9
$CELTYPE
  6
BYLAYER
  9
$CECOLOR
 62
   256
  9
$DIMSCALE
 40
1.0
  9
$DIMASZ
 40
30.0
  9
$DIMEXO
 40
0.0625
  9
$DIMDLI
 40
0.38
  9
$DIMRND
 40
0.0
  9
$DIMDLE
 40
0.0
  9
$DIMEXE
 40
0.18
  9
$DIMTP
 40
0.0
  9
$DIMTM
 40
0.0
  9
$DIMTXT
 40
0.18
  9
$DIMCEN
 40
0.09
  9
$DIMTSZ
 40
0.0
  9
$DIMTOL
 70
     0
  9
$DIMLIM
 70
     0
  9
$DIMTIH
 70
     1
  9
$DIMTOH
 70
     1
  9
$DIMSE1
 70
     0
  9
$DIMSE2
 70
     0
  9
$DIMTAD
 70
     0
  9
$DIMZIN
 70
     0
  9
$DIMBLK
  1

  9
$DIMASO
 70
     1
  9
$DIMSHO
 70
     1
  9
$DIMPOST
  1

  9
$DIMAPOST
  1

  9
$DIMALT
 70
     0
  9
$DIMALTD
 70
     2
  9
$DIMALTF
 40
25.4
  9
$DIMLFAC
 40
1.0
  9
$DIMTOFL
 70
     0
  9
$DIMTVP
 40
0.0
  9
$DIMTIX
 70
     0
  9
$DIMSOXD
 70
     0
  9
$DIMSAH
 70
     0
  9
$DIMBLK1
  1

  9
$DIMBLK2
  1

  9
$DIMSTYLE
  2
STANDARD
  9
$DIMCLRD
 70
     0
  9
$DIMCLRE
 70
     0
  9
$DIMCLRT
 70
     0
  9
$DIMTFAC
 40
1.0
  9
$DIMGAP
 40
0.09
  9
$LUNITS
 70
     2
  9
$LUPREC
 70
     4
  9
$SKETCHINC
 40
0.1
  9
$FILLETRAD
 40
0.0
  9
$AUNITS
 70
     0
  9
$AUPREC
 70
     0
  9
$MENU
  1
.
  9
$ELEVATION
 40
0.0
  9
$PELEVATION
 40
0.0
  9
$THICKNESS
 40
0.0
  9
$LIMCHECK
 70
     0
  9
$CHAMFERA
 40
0.0
  9
$CHAMFERB
 40
0.0
  9
$SKPOLY
 70
     0
  9
$TDCREATE
 40
2453353.758792488
  9
$TDUPDATE
 40
2458191.084175926
  9
$TDINDWG
 40
4916382.042657407
  9
$TDUSRTIMER
 40
4916194.049708149
  9
$USRTIMER
 70
     1
  9
$ANGBASE
 50
0.0
  9
$ANGDIR
 70
     0
  9
$PDMODE
 70
     0
  9
$PDSIZE
 40
0.0
  9
$PLINEWID
 40
9.0
  9
$COORDS
 70
     1
  9
$SPLFRAME
 70
     0
  9
$SPLINETYPE
 70
     6
  9
$SPLINESEGS
 70
     8
  9
$ATTDIA
 70
     0
  9
$ATTREQ
 70
     1
  9
$HANDLING
 70
     1
  9
$HANDSEED
  5
293
  9
$SURFTAB1
 70
     6
  9
$SURFTAB2
 70
     6
  9
$SURFTYPE
 70
     6
  9
$SURFU
 70
     6
  9
$SURFV
 70
     6
  9
$UCSNAME
  2

  9
$UCSORG
 10
0.0
 20
0.0
 30
0.0
  9
$UCSXDIR
 10
1.0
 20
0.0
 30
0.0
  9
$UCSYDIR
 10
0.0
 20
1.0
 30
0.0
  9
$PUCSNAME
  2

  9
$PUCSORG
 10
0.0
 20
0.0
 30
0.0
  9
$PUCSXDIR
 10
1.0
 20
0.0
 30
0.0
  9
$PUCSYDIR
 10
0.0
 20
1.0
 30
0.0
  9
$USERI1
 70
     0
  9
$USERI2
 70
     0
  9
$USERI3
 70
     0
  9
$USERI4
 70
     0
  9
$USERI5
 70
     0
  9
$USERR1
 40
0.0
  9
$USERR2
 40
0.0
  9
$USERR3
 40
0.0
  9
$USERR4
 40
0.0
  9
$USERR5
 40
0.0
  9
$WORLDVIEW
 70
     1
  9
$SHADEDGE
 70
     3
  9
$SHADEDIF
 70
    70
  9
$TILEMODE
 70
     1
  9
$MAXACTVP
 70
    64
  9
$PLIMCHECK
 70
     0
  9
$PEXTMIN
 10
0.0
 20
0.0
 30
0.0
  9
$PEXTMAX
 10
0.0
 20
0.0
 30
0.0
  9
$PLIMMIN
 10
0.0
 20
0.0
  9
$PLIMMAX
 10
0.0
 20
0.0
  9
$UNITMODE
 70
     0
  9
$VISRETAIN
 70
     1
  9
$PLINEGEN
 70
     0
  9
$PSLTSCALE
 70
     1
  0
ENDSEC
  0
SECTION
  2
TABLES
  0
TABLE
  2
VPORT
 70
     1
  0
VPORT
  2
*ACTIVE
 70
     0
 10
0.0
 20
0.0
 11
1.0
 21
1.0
 12
604.9074279537834
 22
39.52197538970083
 13
0.0
 23
0.0
 14
0.5
 24
0.5
 15
0.5
 25
0.5
 16
0.0
 26
0.0
 36
1.0
 17
-27.66959356597943
 27
-19.53870295786203
 37
0.0
 40
972.2599963018902
 41
2.0
 42
50.0
 43
0.0
 44
0.0
 50
0.0
 51
0.0
 71
    16
 72
  1000
 73
     1
 74
     3
 75
     0
 76
     0
 77
     0
 78
     0
  0
ENDTAB
  0
TABLE
  2
LTYPE
 70
     1
  0
LTYPE
  2
CONTINUOUS
 70
     0
  3
Solid line
 72
    65
 73
     0
 40
0.0
  0
ENDTAB
  0
TABLE
  2
LAYER
 70
     2
  0
LAYER
  2
0
 70
     0
 62
     7
  6
CONTINUOUS
  0
LAYER
  2
DEFPOINTS
 70
     0
 62
     7
  6
CONTINUOUS
  0
ENDTAB
  0
TABLE
  2
STYLE
 70
     2
  0
STYLE
  2
STANDARD
 70
     0
 40
50.0
 41
1.0
 50
0.0
 71
     0
 42
0.2
  3
txt.shx
  4

  0
STYLE
  2
ANNOTATIVE
 70
     0
 40
0.0
 41
1.0
 50
0.0
 71
     0
 42
0.2
  3
arial.ttf
  4

  0
ENDTAB
  0
TABLE
  2
VIEW
 70
     0
  0
ENDTAB
  0
TABLE
  2
UCS
 70
     0
  0
ENDTAB
  0
TABLE
  2
APPID
 70
     3
  0
APPID
  2
ACAD
 70
     0
  0
APPID
  2
ACADANNOTATIVE
 70
     0
  0
APPID
  2
ACAD_MLEADERVER
 70
     0
  0
ENDTAB
  0
TABLE
  2
DIMSTYLE
 70
     2
  0
DIMSTYLE
  2
STANDARD
 70
     0
  3

  4

  5

  6

  7

 40
1.0
 41
30.0
 42
0.0625
 43
0.38
 44
0.18
 45
0.0
 46
0.0
 47
0.0
 48
0.0
140
0.18
141
0.09
142
0.0
143
25.4
144
1.0
145
0.0
146
1.0
147
0.09
 71
     0
 72
     0
 73
     1
 74
     1
 75
     0
 76
     0
 77
     0
 78
     0
170
     0
171
     2
172
     0
173
     0
174
     0
175
     0
176
     0
177
     0
178
     0
  0
DIMSTYLE
  2
ANNOTATIVE
 70
     0
  3

  4

  5

  6

  7

 40
0.0
 41
0.18
 42
0.0625
 43
0.38
 44
0.18
 45
0.0
 46
0.0
 47
0.0
 48
0.0
140
0.18
141
0.09
142
0.0
143
25.4
144
1.0
145
0.0
146
1.0
147
0.09
 71
     0
 72
     0
 73
     1
 74
     1
 75
     0
 76
     0
 77
     0
 78
     0
170
     0
171
     2
172
     0
173
     0
174
     0
175
     0
176
     0
177
     0
178
     0
  0
ENDTAB
  0
ENDSEC
  0
SECTION
  2
BLOCKS
  0
BLOCK
  8
0
  2
$MODEL_SPACE
 70
     0
 10
0.0
 20
0.0
 30
0.0
  3
$MODEL_SPACE
  1

  0
ENDBLK
  5
21
  8
0
  0
BLOCK
 67
     1
  8
0
  2
$PAPER_SPACE
 70
     0
 10
0.0
 20
0.0
 30
0.0
  3
$PAPER_SPACE
  1

  0
ENDBLK
  5
76
 67
     1
  8
0
  0
BLOCK
  8
0
  2
NRE-668
 70
     0
 10
0.0
 20
0.0
 30
0.0
  3
NRE-668
  1

  0
LINE
  5
265
  8
0
 10
607.6875187940298
 20
-148.3288221562913
 30
0.0
 11
547.6875187940295
 21
251.6711778437086
 31
0.0
  0
LINE
  5
266
  8
0
 10
607.6875187940298
 20
-148.3288221562913
 30
0.0
 11
-0.1200931246960977
 21
-199.9999639441002
 31
0.0
  0
LINE
  5
267
  8
0
 10
547.6875187940295
 20
251.6711778437086
 30
0.0
 11
0.1200931246960977
 21
199.9999639441002
 31
0.0
  0
LINE
  5
268
  8
0
 10
0.1200931246960977
 20
199.9999639441002
 30
0.0
 11
-0.1200931246960977
 21
-199.9999639441002
 31
0.0
  0
LINE
  5
269
  8
0
 10
607.6875187940298
 20
-148.3288221562913
 30
0.0
 11
547.6875187940295
 21
251.6711778437086
 31
0.0
  0
LINE
  5
26A
  8
0
 10
547.6875187940296
 20
251.6711778437086
 30
0.0
 11
607.6875187940298
 21
-148.3288221562913
 31
0.0
  0
LINE
  5
26B
  8
0
 10
547.6875187940296
 20
251.6711778437086
 30
0.0
 11
1155.495130712755
 21
303.3423196315176
 31
0.0
  0
LINE
  5
26C
  8
0
 10
607.6875187940298
 20
-148.3288221562913
 30
0.0
 11
1155.254944463363
 21
-96.65760825668295
 31
0.0
  0
LINE
  5
26D
  8
0
 10
1155.495130712755
 20
303.3423196315176
 30
0.0
 11
1155.254944463363
 21
-96.65760825668295
 31
0.0
  0
TEXT
  5
26E
  8
0
 10
105.5264484404355
 20
-100.4902906142031
 30
0.0
 40
30.0
  1
Bellerstein
  0
TEXT
  5
26F
  8
0
 10
681.8228811145365
 20
-74.75054742795535
 30
0.0
 40
50.0
  1
NRE-668
  0
TEXT
  5
270
  8
0
 10
724.5482884234067
 20
8.809819272468388
 30
0.0
 40
50.0
  1
JuJoh
  0
TEXT
  5
271
  8
0
 62
     2
 10
39.95109716199258
 20
137.7586348422084
 30
0.0
 40
25.0
  1
DL 03/18
  0
TEXT
  5
272
  8
0
 10
798.8214096572962
 20
176.6313614968398
 30
0.0
 40
50.0
  1
1160
  0
POLYLINE
  5
273
  8
0
 66
     1
 10
0.0
 20
0.0
 30
0.0
 40
9.0
 41
9.0
  0
VERTEX
  5
28B
  8
0
 10
0.0
 20
0.0
 30
0.0
 42
0.0444228136800912
  0
VERTEX
  5
28C
  8
0
 10
314.2181963035031
 20
34.02712462519313
 30
0.0
 42
-0.00930682468943
  0
VERTEX
  5
28D
  8
0
 10
455.5147925600166
 20
59.45354414924881
 30
0.0
 42
-0.0015855028806106
  0
VERTEX
  5
28E
  8
0
 10
575.3023749980368
 20
78.32553138486091
 30
0.0
 42
-0.0219659678160469
  0
VERTEX
  5
28F
  8
0
 10
683.947278735112
 20
90.23311072048355
 30
0.0
 42
-0.0037574542234699
  0
VERTEX
  5
290
  8
0
 10
857.4046052560162
 20
100.2571472950935
 30
0.0
 42
-0.0147989005564431
  0
VERTEX
  5
291
  8
0
 10
981.2076967838198
 20
102.8097001292145
 30
0.0
 42
0.0060195754345194
  0
VERTEX
  5
292
  8
0
 10
1155.375037588059
 20
103.3423556874173
 30
0.0
 42
-26.97449605514121
  0
SEQEND
  5
28A
  8
0
  0
ENDBLK
  5
280
  8
0
  0
ENDSEC
  0
SECTION
  2
ENTITIES
  0
INSERT
  5
276
  8
0
  2
NRE-668
 10
0.0
 20
0.0
 30
0.0
  0
ENDSEC
  0
EOF
