  0
SECTION
  2
HEADER
  9
$ACADVER
  1
AC1009
  9
$DWGCODEPAGE
  3
ansi_1252
  9
$INSBASE
 10
0.0
 20
0.0
 30
0.0
  9
$EXTMIN
 10
-100.1492419272793
 20
-779.034735530563
 30
0.0
  9
$EXTMAX
 10
1000.475349296116
 20
320.9653945893972
 30
0.0
  9
$LIMMIN
 10
0.0
 20
0.0
  9
$LIMMAX
 10
420.0
 20
297.0
  9
$ORTHOMODE
 70
     0
  9
$REGENMODE
 70
     1
  9
$FILLMODE
 70
     1
  9
$QTEXTMODE
 70
     0
  9
$MIRRTEXT
 70
     0
  9
$DRAGMODE
 70
     2
  9
$LTSCALE
 40
1.0
  9
$OSMODE
 70
    37
  9
$ATTMODE
 70
     1
  9
$TEXTSIZE
 40
50.0
  9
$TRACEWID
 40
1.0
  9
$TEXTSTYLE
  7
STANDARD
  9
$CLAYER
  8
0
  9
$CELTYPE
  6
BYLAYER
  9
$CECOLOR
 62
   256
  9
$DIMSCALE
 40
1.0
  9
$DIMASZ
 40
2.5
  9
$DIMEXO
 40
0.625
  9
$DIMDLI
 40
3.75
  9
$DIMRND
 40
0.0
  9
$DIMDLE
 40
0.0
  9
$DIMEXE
 40
1.25
  9
$DIMTP
 40
0.0
  9
$DIMTM
 40
0.0
  9
$DIMTXT
 40
20.0
  9
$DIMCEN
 40
2.5
  9
$DIMTSZ
 40
0.0
  9
$DIMTOL
 70
     0
  9
$DIMLIM
 70
     0
  9
$DIMTIH
 70
     0
  9
$DIMTOH
 70
     0
  9
$DIMSE1
 70
     0
  9
$DIMSE2
 70
     0
  9
$DIMTAD
 70
     1
  9
$DIMZIN
 70
     8
  9
$DIMBLK
  1

  9
$DIMASO
 70
     1
  9
$DIMSHO
 70
     1
  9
$DIMPOST
  1

  9
$DIMAPOST
  1

  9
$DIMALT
 70
     0
  9
$DIMALTD
 70
     3
  9
$DIMALTF
 40
0.03937007874016
  9
$DIMLFAC
 40
1.0
  9
$DIMTOFL
 70
     1
  9
$DIMTVP
 40
0.0
  9
$DIMTIX
 70
     0
  9
$DIMSOXD
 70
     0
  9
$DIMSAH
 70
     0
  9
$DIMBLK1
  1

  9
$DIMBLK2
  1

  9
$DIMSTYLE
  2
ISO-25
  9
$DIMCLRD
 70
     0
  9
$DIMCLRE
 70
     0
  9
$DIMCLRT
 70
     0
  9
$DIMTFAC
 40
1.0
  9
$DIMGAP
 40
0.625
  9
$LUNITS
 70
     2
  9
$LUPREC
 70
     4
  9
$SKETCHINC
 40
1.0
  9
$FILLETRAD
 40
0.0
  9
$AUNITS
 70
     0
  9
$AUPREC
 70
     0
  9
$MENU
  1
.
  9
$ELEVATION
 40
0.0
  9
$PELEVATION
 40
0.0
  9
$THICKNESS
 40
0.0
  9
$LIMCHECK
 70
     0
  9
$CHAMFERA
 40
0.0
  9
$CHAMFERB
 40
0.0
  9
$SKPOLY
 70
     0
  9
$TDCREATE
 40
2453353.800459144
  9
$TDUPDATE
 40
2456154.403685741
  9
$TDINDWG
 40
9763408.074512858
  9
$TDUSRTIMER
 40
9763408.074512858
  9
$USRTIMER
 70
     1
  9
$ANGBASE
 50
0.0
  9
$ANGDIR
 70
     0
  9
$PDMODE
 70
     0
  9
$PDSIZE
 40
0.0
  9
$PLINEWID
 40
9.0
  9
$COORDS
 70
     1
  9
$SPLFRAME
 70
     0
  9
$SPLINETYPE
 70
     6
  9
$SPLINESEGS
 70
     8
  9
$ATTDIA
 70
     0
  9
$ATTREQ
 70
     1
  9
$HANDLING
 70
     1
  9
$HANDSEED
  5
441
  9
$SURFTAB1
 70
     6
  9
$SURFTAB2
 70
     6
  9
$SURFTYPE
 70
     6
  9
$SURFU
 70
     6
  9
$SURFV
 70
     6
  9
$UCSNAME
  2

  9
$UCSORG
 10
0.0
 20
0.0
 30
0.0
  9
$UCSXDIR
 10
1.0
 20
0.0
 30
0.0
  9
$UCSYDIR
 10
0.0
 20
1.0
 30
0.0
  9
$PUCSNAME
  2

  9
$PUCSORG
 10
0.0
 20
0.0
 30
0.0
  9
$PUCSXDIR
 10
1.0
 20
0.0
 30
0.0
  9
$PUCSYDIR
 10
0.0
 20
1.0
 30
0.0
  9
$USERI1
 70
     0
  9
$USERI2
 70
     0
  9
$USERI3
 70
     0
  9
$USERI4
 70
     0
  9
$USERI5
 70
     0
  9
$USERR1
 40
0.0
  9
$USERR2
 40
0.0
  9
$USERR3
 40
0.0
  9
$USERR4
 40
0.0
  9
$USERR5
 40
0.0
  9
$WORLDVIEW
 70
     1
  9
$SHADEDGE
 70
     3
  9
$SHADEDIF
 70
    70
  9
$TILEMODE
 70
     1
  9
$MAXACTVP
 70
    64
  9
$PLIMCHECK
 70
     0
  9
$PEXTMIN
 10
1.000000000000000E+20
 20
1.000000000000000E+20
 30
1.000000000000000E+20
  9
$PEXTMAX
 10
-1.000000000000000E+20
 20
-1.000000000000000E+20
 30
-1.000000000000000E+20
  9
$PLIMMIN
 10
0.0
 20
0.0
  9
$PLIMMAX
 10
420.0
 20
297.0
  9
$UNITMODE
 70
     0
  9
$VISRETAIN
 70
     1
  9
$PLINEGEN
 70
     0
  9
$PSLTSCALE
 70
     1
  0
ENDSEC
  0
SECTION
  2
TABLES
  0
TABLE
  2
VPORT
 70
     1
  0
VPORT
  2
*ACTIVE
 70
     0
 10
0.0
 20
0.0
 11
1.0
 21
1.0
 12
467.4981523640067
 22
-165.2009877644123
 13
0.0
 23
0.0
 14
10.0
 24
10.0
 15
10.0
 25
10.0
 16
0.0
 26
0.0
 36
1.0
 17
0.0
 27
0.0
 37
0.0
 40
1491.448707622515
 41
1.664827586206897
 42
50.0
 43
0.0
 44
0.0
 50
0.0
 51
0.0
 71
    16
 72
  1000
 73
     1
 74
     1
 75
     0
 76
     0
 77
     0
 78
     0
  0
ENDTAB
  0
TABLE
  2
LTYPE
 70
     1
  0
LTYPE
  2
CONTINUOUS
 70
     0
  3
Solid line
 72
    65
 73
     0
 40
0.0
  0
ENDTAB
  0
TABLE
  2
LAYER
 70
     3
  0
LAYER
  2
0
 70
     0
 62
     7
  6
CONTINUOUS
  0
LAYER
  2
BEDIENRAUM
 70
     0
 62
     2
  6
CONTINUOUS
  0
LAYER
  2
DEFPOINTS
 70
     0
 62
     7
  6
CONTINUOUS
  0
ENDTAB
  0
TABLE
  2
STYLE
 70
     1
  0
STYLE
  2
STANDARD
 70
     0
 40
0.0
 41
1.0
 50
0.0
 71
     0
 42
2.5
  3
txt
  4

  0
ENDTAB
  0
TABLE
  2
VIEW
 70
     0
  0
ENDTAB
  0
TABLE
  2
UCS
 70
     0
  0
ENDTAB
  0
TABLE
  2
APPID
 70
     1
  0
APPID
  2
ACAD
 70
     0
  0
ENDTAB
  0
TABLE
  2
DIMSTYLE
 70
     2
  0
DIMSTYLE
  2
STANDARD
 70
     0
  3

  4

  5

  6

  7

 40
1.0
 41
0.18
 42
0.0625
 43
0.38
 44
0.18
 45
0.0
 46
0.0
 47
0.0
 48
0.0
140
0.18
141
0.09
142
0.0
143
25.4
144
1.0
145
0.0
146
1.0
147
0.09
 71
     0
 72
     0
 73
     1
 74
     1
 75
     0
 76
     0
 77
     0
 78
     0
170
     0
171
     2
172
     0
173
     0
174
     0
175
     0
176
     0
177
     0
178
     0
  0
DIMSTYLE
  2
ISO-25
 70
     0
  3

  4

  5

  6

  7

 40
1.0
 41
2.5
 42
0.625
 43
3.75
 44
1.25
 45
0.0
 46
0.0
 47
0.0
 48
0.0
140
2.5
141
2.5
142
0.0
143
0.03937007874016
144
1.0
145
0.0
146
1.0
147
0.625
 71
     0
 72
     0
 73
     0
 74
     0
 75
     0
 76
     0
 77
     1
 78
     8
170
     0
171
     3
172
     1
173
     0
174
     0
175
     0
176
     0
177
     0
178
     0
  0
ENDTAB
  0
ENDSEC
  0
SECTION
  2
BLOCKS
  0
BLOCK
  8
0
  2
$MODEL_SPACE
 70
     0
 10
0.0
 20
0.0
 30
0.0
  3
$MODEL_SPACE
  1

  0
ENDBLK
  5
21
  8
0
  0
BLOCK
 67
     1
  8
0
  2
$PAPER_SPACE
 70
     0
 10
0.0
 20
0.0
 30
0.0
  3
$PAPER_SPACE
  1

  0
ENDBLK
  5
76
 67
     1
  8
0
  0
BLOCK
  8
0
  2
*D1
 70
     1
 10
0.0
 20
0.0
 30
0.0
  3
*D1
  1

  0
POINT
  5
165
  8
DEFPOINTS
  6
BYBLOCK
 62
     0
 10
-284.7009496127727
 20
1062.518408917975
 30
0.0
  0
POINT
  5
166
  8
DEFPOINTS
  6
BYBLOCK
 62
     0
 10
284.7009496127728
 20
1062.518408917975
 30
0.0
  0
LINE
  5
167
  8
0
  6
BYBLOCK
 62
     0
 10
-284.7009496127727
 20
1063.143408917975
 30
0.0
 11
-284.7009496127727
 21
1088.591249384324
 31
0.0
  0
LINE
  5
168
  8
0
  6
BYBLOCK
 62
     0
 10
284.7009496127728
 20
1063.143408917975
 30
0.0
 11
284.7009496127728
 21
1088.591249384324
 31
0.0
  0
LINE
  5
169
  8
0
  6
BYBLOCK
 62
     0
 10
-282.2009496127727
 20
1087.341249384324
 30
0.0
 11
282.2009496127728
 21
1087.341249384324
 31
0.0
  0
SOLID
  5
16A
  8
0
  6
BYBLOCK
 62
     0
 10
-284.7009496127727
 20
1087.341249384324
 30
0.0
 11
-282.2009496127727
 21
1086.924582717657
 31
0.0
 12
-282.2009496127727
 22
1087.757916050991
 32
0.0
 13
-282.2009496127727
 23
1087.757916050991
 33
0.0
  0
SOLID
  5
16B
  8
0
  6
BYBLOCK
 62
     0
 10
284.7009496127728
 20
1087.341249384324
 30
0.0
 11
282.2009496127728
 21
1086.924582717657
 31
0.0
 12
282.2009496127728
 22
1087.757916050991
 32
0.0
 13
282.2009496127728
 23
1087.757916050991
 33
0.0
  0
TEXT
  5
16C
  8
0
  6
BYBLOCK
 62
     0
 10
-41.69999999999995
 20
1091.366249384324
 30
0.0
 40
20.0
  1
569,4
  0
ENDBLK
  5
417
  8
0
  0
BLOCK
  8
0
  2
*D2
 70
     1
 10
0.0
 20
0.0
 30
0.0
  3
*D2
  1

  0
POINT
  5
171
  8
DEFPOINTS
  6
BYBLOCK
 62
     0
 10
-181.1733315717638
 20
676.1480784023454
 30
0.0
  0
POINT
  5
172
  8
DEFPOINTS
  6
BYBLOCK
 62
     0
 10
181.1733315717645
 20
676.1480784023478
 30
0.0
  0
LINE
  5
173
  8
0
  6
BYBLOCK
 62
     0
 10
-181.1733315717638
 20
675.5230784023454
 30
0.0
 11
-181.1733315717638
 21
614.2661556805847
 31
0.0
  0
LINE
  5
174
  8
0
  6
BYBLOCK
 62
     0
 10
181.1733315717645
 20
675.5230784023478
 30
0.0
 11
181.1733315717645
 21
614.2661556805847
 31
0.0
  0
LINE
  5
175
  8
0
  6
BYBLOCK
 62
     0
 10
-178.6733315717638
 20
615.5161556805847
 30
0.0
 11
178.6733315717645
 21
615.5161556805847
 31
0.0
  0
SOLID
  5
176
  8
0
  6
BYBLOCK
 62
     0
 10
-181.1733315717638
 20
615.5161556805847
 30
0.0
 11
-178.6733315717638
 21
615.099489013918
 31
0.0
 12
-178.6733315717638
 22
615.9328223472514
 32
0.0
 13
-178.6733315717638
 23
615.9328223472514
 33
0.0
  0
SOLID
  5
177
  8
0
  6
BYBLOCK
 62
     0
 10
181.1733315717645
 20
615.5161556805847
 30
0.0
 11
178.6733315717645
 21
615.099489013918
 31
0.0
 12
178.6733315717645
 22
615.9328223472514
 32
0.0
 13
178.6733315717645
 23
615.9328223472514
 33
0.0
  0
TEXT
  5
178
  8
0
  6
BYBLOCK
 62
     0
 10
-51.69999999999963
 20
619.5411556805848
 30
0.0
 40
20.0
  1
362,35
  0
ENDBLK
  5
419
  8
0
  0
BLOCK
  8
0
  2
*D3
 70
     1
 10
0.0
 20
0.0
 30
0.0
  3
*D3
  1

  0
POINT
  5
189
  8
DEFPOINTS
  6
BYBLOCK
 62
     0
 10
-284.7009496127727
 20
1062.518408917975
 30
0.0
  0
POINT
  5
18A
  8
DEFPOINTS
  6
BYBLOCK
 62
     0
 10
-181.1733315717638
 20
676.1480784023454
 30
0.0
  0
LINE
  5
18B
  8
0
  6
BYBLOCK
 62
     0
 10
-285.3046532542034
 20
1062.356647014786
 30
0.0
 11
-354.1771640342157
 21
1043.902313370578
 31
0.0
  0
LINE
  5
18C
  8
0
  6
BYBLOCK
 62
     0
 10
-181.7770352131944
 20
675.9863164991564
 30
0.0
 11
-250.6495459932069
 21
657.5319828549482
 31
0.0
  0
LINE
  5
18D
  8
0
  6
BYBLOCK
 62
     0
 10
-352.3227091385981
 20
1041.811022611234
 30
0.0
 11
-250.0891863231019
 21
660.2703212270491
 31
0.0
  0
SOLID
  5
18E
  8
0
  6
BYBLOCK
 62
     0
 10
-352.9697567513544
 20
1044.225837176956
 30
0.0
 11
-352.7251782328853
 21
1041.703181342441
 31
0.0
 12
-351.9202400443109
 22
1041.918863880026
 32
0.0
 13
-351.9202400443109
 23
1041.918863880026
 33
0.0
  0
SOLID
  5
18F
  8
0
  6
BYBLOCK
 62
     0
 10
-249.4421387103456
 20
657.8555066613263
 30
0.0
 11
-250.4916554173891
 21
660.1624799582563
 31
0.0
 12
-249.6867172288147
 22
660.3781624958418
 32
0.0
 13
-249.6867172288147
 23
660.3781624958418
 33
0.0
  0
TEXT
  5
190
  8
0
  6
BYBLOCK
 62
     0
 10
-306.632727840308
 20
873.7085055748656
 30
0.0
 40
20.0
  1
400
 50
285.0
  0
ENDBLK
  5
41B
  8
0
  0
BLOCK
  8
0
  2
*D4
 70
     1
 10
0.0
 20
0.0
 30
0.0
  3
*D4
  1

  0
TEXT
  5
19E
  8
0
  6
BYBLOCK
 62
     0
 10
94.6783333012753
 20
706.9008411502466
 30
0.0
 40
20.0
  1
105,00°
 50
37.50000000000018
  0
POINT
  5
19F
  8
DEFPOINTS
  6
BYBLOCK
 62
     0
 10
284.7009496127728
 20
1062.518408917975
 30
0.0
  0
POINT
  5
1A0
  8
DEFPOINTS
  6
BYBLOCK
 62
     0
 10
-181.1733315717739
 20
676.1480784023453
 30
0.0
  0
POINT
  5
1A1
  8
DEFPOINTS
  6
BYBLOCK
 62
     0
 10
181.1733315717645
 20
676.1480784023478
 30
0.0
  0
POINT
  5
1A2
  8
DEFPOINTS
  6
BYBLOCK
 62
     0
 10
181.1733315717645
 20
676.1480784023478
 30
0.0
  0
SOLID
  5
1A3
  8
0
  6
BYBLOCK
 62
     0
 10
200.5142643237055
 20
748.3294220983643
 30
0.0
 11
197.987870275166
 21
748.5317688863685
 31
0.0
 12
198.1900581009263
 22
749.3402022649217
 32
0.0
 13
198.1900581009263
 23
749.3402022649217
 33
0.0
  0
SOLID
  5
1A4
  8
0
  6
BYBLOCK
 62
     0
 10
106.4457057732852
 20
676.1480784023473
 30
0.0
 11
106.0709159409076
 21
678.6546983760684
 31
0.0
 12
106.9041326800809
 22
678.6407588636654
 32
0.0
 13
106.9041326800809
 23
678.6407588636654
 33
0.0
  0
ARC
  5
1A5
  8
0
  6
BYBLOCK
 62
     0
 10
181.1733315717646
 20
676.1480784023478
 30
0.0
 40
74.72762579847938
 50
76.91690995102915
 51
178.0830900489712
  0
ENDBLK
  5
41D
  8
0
  0
BLOCK
  8
0
  2
*D5
 70
     1
 10
0.0
 20
0.0
 30
0.0
  3
*D5
  1

  0
TEXT
  5
1AA
  8
0
  6
BYBLOCK
 62
     0
 10
-176.6391511906692
 20
764.0268509420855
 30
0.0
 40
20.0
  1
105,00°
 50
322.5000000000002
  0
POINT
  5
1AB
  8
DEFPOINTS
  6
BYBLOCK
 62
     0
 10
181.1733315717645
 20
676.1480784023478
 30
0.0
  0
POINT
  5
1AC
  8
DEFPOINTS
  6
BYBLOCK
 62
     0
 10
-181.1733315717638
 20
676.1480784023454
 30
0.0
  0
POINT
  5
1AD
  8
DEFPOINTS
  6
BYBLOCK
 62
     0
 10
-284.7009496127727
 20
1062.518408917975
 30
0.0
  0
POINT
  5
1AE
  8
DEFPOINTS
  6
BYBLOCK
 62
     0
 10
-181.1733315717739
 20
676.1480784023453
 30
0.0
  0
SOLID
  5
1AF
  8
0
  6
BYBLOCK
 62
     0
 10
-199.3305621669938
 20
743.911785508488
 30
0.0
 11
-197.0052549166753
 21
744.9200301726083
 31
0.0
 12
-196.8039489310318
 22
744.1113767582282
 32
0.0
 13
-196.8039489310318
 23
744.1113767582282
 33
0.0
  0
SOLID
  5
1B0
  8
0
  6
BYBLOCK
 62
     0
 10
-111.0191797084886
 20
676.1480784023457
 30
0.0
 11
-111.4803249907385
 21
678.6402573966737
 31
0.0
 12
-110.6471239502941
 22
678.655105650683
 32
0.0
 13
-110.6471239502941
 23
678.655105650683
 33
0.0
  0
ARC
  5
1B1
  8
0
  6
BYBLOCK
 62
     0
 10
-181.1733315717638
 20
676.1480784023453
 30
0.0
 40
70.15415186327512
 50
2.041889543009064
 51
102.9581104569913
  0
ENDBLK
  5
41F
  8
0
  0
BLOCK
  8
0
  2
*D6
 70
     1
 10
0.0
 20
0.0
 30
0.0
  3
*D6
  1

  0
LINE
  5
1D1
  8
0
  6
BYBLOCK
 62
     0
 10
60.9898179502814
 20
895.4253135278078
 30
0.0
 11
47.77134686341064
 21
701.3576147691585
 31
0.0
  0
SOLID
  5
1D2
  8
0
  6
BYBLOCK
 62
     0
 10
61.1597060225663
 20
897.9195344568546
 30
0.0
 11
61.40552143845596
 21
895.3969988490936
 31
0.0
 12
60.57411446210684
 22
895.453628206522
 32
0.0
 13
60.57411446210684
 23
895.453628206522
 33
0.0
  0
TEXT
  5
1D3
  8
0
  6
BYBLOCK
 62
     0
 10
47.19026364922013
 20
702.0236420194915
 30
0.0
 40
20.0
  1
R900
 50
86.10344926533612
  0
POINT
  5
1D4
  8
DEFPOINTS
  6
BYBLOCK
 62
     0
 10
0.0000000000025609
 20
-0.0000000000008226
 30
0.0
  0
POINT
  5
1D5
  8
DEFPOINTS
  6
BYBLOCK
 62
     0
 10
61.1597060225663
 20
897.9195344568546
 30
0.0
  0
ENDBLK
  5
421
  8
0
  0
BLOCK
  8
0
  2
*D7
 70
     1
 10
0.0
 20
0.0
 30
0.0
  3
*D7
  1

  0
TEXT
  5
1DA
  8
0
  6
BYBLOCK
 62
     0
 10
-43.19999999999992
 20
849.7391088405537
 30
0.0
 40
20.0
  1
30,00°
  0
POINT
  5
1DB
  8
DEFPOINTS
  6
BYBLOCK
 62
     0
 10
-284.7009496127727
 20
1062.518408917975
 30
0.0
  0
POINT
  5
1DC
  8
DEFPOINTS
  6
BYBLOCK
 62
     0
 10
181.1733315717645
 20
676.1480784023478
 30
0.0
  0
POINT
  5
1DD
  8
DEFPOINTS
  6
BYBLOCK
 62
     0
 10
284.7009496127728
 20
1062.518408917975
 30
0.0
  0
POINT
  5
1DE
  8
DEFPOINTS
  6
BYBLOCK
 62
     0
 10
-181.1733315717638
 20
676.1480784023454
 30
0.0
  0
SOLID
  5
1DF
  8
0
  6
BYBLOCK
 62
     0
 10
219.3269104565157
 20
818.5391732908263
 30
0.0
 11
216.8038965946193
 21
818.7800304347716
 31
0.0
 12
217.0183915527582
 22
819.5852858957142
 32
0.0
 13
217.0183915527582
 23
819.5852858957142
 33
0.0
  0
SOLID
  5
1E0
  8
0
  6
BYBLOCK
 62
     0
 10
-219.3269104565156
 20
818.5391732908263
 30
0.0
 11
-217.018391552758
 21
819.5852858957143
 31
0.0
 12
-216.8038965946191
 22
818.7800304347717
 32
0.0
 13
-216.8038965946191
 23
818.7800304347717
 33
0.0
  0
ARC
  5
1E1
  8
0
  6
BYBLOCK
 62
     0
 10
0.0000000000000301
 20
0.0000000000000445
 30
0.0
 40
847.4141088405537
 50
75.16903129088008
 51
104.8309687091199
  0
ENDBLK
  5
423
  8
0
  0
BLOCK
  8
0
  2
*D8
 70
     1
 10
0.0
 20
0.0
 30
0.0
  3
*D8
  1

  0
POINT
  5
2CF
  8
DEFPOINTS
  6
BYBLOCK
 62
     0
 10
285.3046532542035
 20
1062.356647014786
 30
0.0
  0
POINT
  5
2D0
  8
DEFPOINTS
  6
BYBLOCK
 62
     0
 10
778.4211629466326
 20
777.655697402013
 30
0.0
  0
LINE
  5
2D1
  8
0
  6
BYBLOCK
 62
     0
 10
285.6171532542035
 20
1062.897912892151
 30
0.0
 11
298.3410734873781
 21
1084.936389207463
 31
0.0
  0
LINE
  5
2D2
  8
0
  6
BYBLOCK
 62
     0
 10
778.7336629466325
 20
778.1969632793782
 30
0.0
 11
791.4575831798072
 21
800.2354395946902
 31
0.0
  0
LINE
  5
2D3
  8
0
  6
BYBLOCK
 62
     0
 10
299.8811369968392
 20
1082.603857452733
 30
0.0
 11
788.6675196703461
 21
800.4029078399597
 31
0.0
  0
SOLID
  5
2D4
  8
0
  6
BYBLOCK
 62
     0
 10
297.7160734873781
 20
1083.853857452733
 30
0.0
 11
299.6728036635058
 21
1082.243013534489
 31
0.0
 12
300.0894703301726
 22
1082.964701370976
 32
0.0
 13
300.0894703301726
 23
1082.964701370976
 33
0.0
  0
SOLID
  5
2D5
  8
0
  6
BYBLOCK
 62
     0
 10
790.8325831798072
 20
799.1529078399597
 30
0.0
 11
788.4591863370127
 21
800.0420639217161
 31
0.0
 12
788.8758530036795
 22
800.7637517582033
 32
0.0
 13
788.8758530036795
 23
800.7637517582033
 33
0.0
  0
TEXT
  5
2D6
  8
0
  6
BYBLOCK
 62
     0
 10
510.1735689957817
 20
965.8391348965786
 30
0.0
 40
20.0
  1
569,4
 50
330.0
  0
ENDBLK
  5
425
  8
0
  0
BLOCK
  8
0
  2
*D9
 70
     1
 10
0.0
 20
0.0
 30
0.0
  3
*D9
  1

  0
POINT
  5
2DA
  8
DEFPOINTS
  6
BYBLOCK
 62
     0
 10
778.4211629466326
 20
777.655697402013
 30
0.0
  0
POINT
  5
2DB
  8
DEFPOINTS
  6
BYBLOCK
 62
     0
 10
495.5784504720136
 20
494.8129849273942
 30
0.0
  0
LINE
  5
2DC
  8
0
  6
BYBLOCK
 62
     0
 10
778.8631046848742
 20
777.2137556637714
 30
0.0
 11
815.5935964990847
 21
740.4832638495609
 31
0.0
  0
LINE
  5
2DD
  8
0
  6
BYBLOCK
 62
     0
 10
496.0203922102552
 20
494.3710431891527
 30
0.0
 11
532.7508840244654
 21
457.6405513749423
 31
0.0
  0
LINE
  5
2DE
  8
0
  6
BYBLOCK
 62
     0
 10
812.9419460696352
 20
739.5993803730777
 30
0.0
 11
533.6347675009487
 21
460.2922018043918
 31
0.0
  0
SOLID
  5
2DF
  8
0
  6
BYBLOCK
 62
     0
 10
814.7097130226015
 20
741.367147326044
 30
0.0
 11
812.6473182441407
 21
739.8940081985721
 31
0.0
 12
813.2365738951296
 22
739.3047525475832
 32
0.0
 13
813.2365738951296
 23
739.3047525475832
 33
0.0
  0
SOLID
  5
2E0
  8
0
  6
BYBLOCK
 62
     0
 10
531.8670005479823
 20
458.5244348514254
 30
0.0
 11
533.3401396754542
 21
460.5868296298863
 31
0.0
 12
533.9293953264431
 22
459.9975739788974
 32
0.0
 13
533.9293953264431
 23
459.9975739788974
 33
0.0
  0
TEXT
  5
2E1
  8
0
  6
BYBLOCK
 62
     0
 10
662.146572723183
 20
632.5530628424023
 30
0.0
 40
20.0
  1
400
 50
255.0
  0
ENDBLK
  5
427
  8
0
  0
BLOCK
  8
0
  2
*D10
 70
     1
 10
0.0
 20
0.0
 30
0.0
  3
*D10
  1

  0
TEXT
  5
2E5
  8
0
  6
BYBLOCK
 62
     0
 10
388.0609606182197
 20
757.3338929418805
 30
0.0
 40
20.0
  1
30,00°
 50
330.0
  0
POINT
  5
2E6
  8
DEFPOINTS
  6
BYBLOCK
 62
     0
 10
285.3046532542035
 20
1062.356647014786
 30
0.0
  0
POINT
  5
2E7
  8
DEFPOINTS
  6
BYBLOCK
 62
     0
 10
495.5784504720136
 20
494.8129849273942
 30
0.0
  0
POINT
  5
2E8
  8
DEFPOINTS
  6
BYBLOCK
 62
     0
 10
778.4211629466326
 20
777.655697402013
 30
0.0
  0
POINT
  5
2E9
  8
DEFPOINTS
  6
BYBLOCK
 62
     0
 10
181.7770352131944
 20
675.9863164991565
 30
0.0
  0
SOLID
  5
2EA
  8
0
  6
BYBLOCK
 62
     0
 10
599.815966475741
 20
599.0505009311216
 30
0.0
 11
597.7514009492111
 21
600.5205962674095
 31
0.0
 12
598.3397867624143
 22
601.1107204740524
 32
0.0
 13
598.3397867624143
 23
601.1107204740524
 33
0.0
  0
SOLID
  5
2EB
  8
0
  6
BYBLOCK
 62
     0
 10
219.9306140979463
 20
818.3774113876375
 30
0.0
 11
222.4529064161609
 21
818.1291120268107
 31
0.0
 12
222.2360367684217
 22
817.3244928620289
 32
0.0
 13
222.2360367684217
 23
817.3244928620289
 33
0.0
  0
ARC
  5
2EC
  8
0
  6
BYBLOCK
 62
     0
 10
0.6037036414303635
 20
-0.1617619031883998
 30
0.0
 40
847.4141088405534
 50
45.16903129088006
 51
74.8309687091199
  0
ENDBLK
  5
429
  8
0
  0
BLOCK
  8
0
  2
*D11
 70
     1
 10
0.0
 20
0.0
 30
0.0
  3
*D11
  1

  0
TEXT
  5
2F0
  8
0
  6
BYBLOCK
 62
     0
 10
436.0479660434283
 20
564.6931578388751
 30
0.0
 40
20.0
  1
105,00°
 50
7.500000000000061
  0
POINT
  5
2F1
  8
DEFPOINTS
  6
BYBLOCK
 62
     0
 10
778.4211629466326
 20
777.655697402013
 30
0.0
  0
POINT
  5
2F2
  8
DEFPOINTS
  6
BYBLOCK
 62
     0
 10
181.7770352131856
 20
675.9863164991614
 30
0.0
  0
POINT
  5
2F3
  8
DEFPOINTS
  6
BYBLOCK
 62
     0
 10
495.5784504720136
 20
494.8129849273942
 30
0.0
  0
POINT
  5
2F4
  8
DEFPOINTS
  6
BYBLOCK
 62
     0
 10
495.5784504720136
 20
494.8129849273942
 30
0.0
  0
SOLID
  5
2F5
  8
0
  6
BYBLOCK
 62
     0
 10
548.418861416089
 20
547.6533958714697
 30
0.0
 11
546.3321133840861
 21
549.0918303545252
 31
0.0
 12
546.9114298668071
 22
549.6908602847394
 32
0.0
 13
546.9114298668071
 23
549.6908602847394
 33
0.0
  0
SOLID
  5
2F6
  8
0
  6
BYBLOCK
 62
     0
 10
430.8624281660329
 20
532.1767978266334
 30
0.0
 11
431.7911606369743
 21
534.5349893176982
 31
0.0
 12
432.5057777437553
 22
534.1063089762541
 32
0.0
 13
432.5057777437553
 23
534.1063089762541
 33
0.0
  0
ARC
  5
2F7
  8
0
  6
BYBLOCK
 62
     0
 10
495.5784504720135
 20
494.8129849273943
 30
0.0
 40
74.7276257984792
 50
46.91690995102912
 51
148.0830900489712
  0
ENDBLK
  5
42B
  8
0
  0
BLOCK
  8
0
  2
*D12
 70
     1
 10
0.0
 20
0.0
 30
0.0
  3
*D12
  1

  0
POINT
  5
2FB
  8
DEFPOINTS
  6
BYBLOCK
 62
     0
 10
181.7770352131944
 20
675.9863164991565
 30
0.0
  0
POINT
  5
2FC
  8
DEFPOINTS
  6
BYBLOCK
 62
     0
 10
495.5784504720136
 20
494.8129849273942
 30
0.0
  0
LINE
  5
2FD
  8
0
  6
BYBLOCK
 62
     0
 10
181.4645352131944
 20
675.4450506217912
 30
0.0
 11
150.8360738523132
 21
622.3949993870841
 31
0.0
  0
LINE
  5
2FE
  8
0
  6
BYBLOCK
 62
     0
 10
495.2659504720136
 20
494.2717190500289
 30
0.0
 11
464.6374891111324
 21
441.2216678153217
 31
0.0
  0
LINE
  5
2FF
  8
0
  6
BYBLOCK
 62
     0
 10
153.6261373617743
 20
622.2275311418147
 30
0.0
 11
463.0974256016712
 21
443.5541995700523
 31
0.0
  0
SOLID
  5
300
  8
0
  6
BYBLOCK
 62
     0
 10
151.4610738523132
 20
623.4775311418147
 30
0.0
 11
153.417804028441
 21
621.866687223571
 31
0.0
 12
153.8344706951077
 22
622.5883750600582
 32
0.0
 13
153.8344706951077
 23
622.5883750600582
 33
0.0
  0
SOLID
  5
301
  8
0
  6
BYBLOCK
 62
     0
 10
465.2624891111323
 20
442.3041995700523
 30
0.0
 11
462.8890922683378
 21
443.1933556518086
 31
0.0
 12
463.3057589350046
 22
443.9150434882959
 32
0.0
 13
463.3057589350046
 23
443.9150434882959
 33
0.0
  0
TEXT
  5
302
  8
0
  6
BYBLOCK
 62
     0
 10
265.6007681060671
 20
562.2266176061655
 30
0.0
 40
20.0
  1
362,35
 50
330.0000000000003
  0
ENDBLK
  5
42D
  8
0
  0
BLOCK
  8
0
  2
*D13
 70
     1
 10
0.0
 20
0.0
 30
0.0
  3
*D13
  1

  0
TEXT
  5
306
  8
0
  6
BYBLOCK
 62
     0
 10
229.6431368784334
 20
749.8244757814184
 30
0.0
 40
20.0
  1
105,00°
 50
292.5000000000002
  0
POINT
  5
307
  8
DEFPOINTS
  6
BYBLOCK
 62
     0
 10
495.5784504720136
 20
494.8129849273942
 30
0.0
  0
POINT
  5
308
  8
DEFPOINTS
  6
BYBLOCK
 62
     0
 10
181.7770352131944
 20
675.9863164991565
 30
0.0
  0
POINT
  5
309
  8
DEFPOINTS
  6
BYBLOCK
 62
     0
 10
285.3046532542035
 20
1062.356647014786
 30
0.0
  0
POINT
  5
30A
  8
DEFPOINTS
  6
BYBLOCK
 62
     0
 10
181.7770352131856
 20
675.9863164991614
 30
0.0
  0
SOLID
  5
30B
  8
0
  6
BYBLOCK
 62
     0
 10
199.9342658084245
 20
743.750023605299
 30
0.0
 11
202.4521632908647
 21
743.4605354724981
 31
0.0
 12
202.2221726811757
 22
742.659568079966
 32
0.0
 13
202.2221726811757
 23
742.659568079966
 33
0.0
  0
SOLID
  5
30C
  8
0
  6
BYBLOCK
 62
     0
 10
242.5323129077423
 20
640.9092405675191
 30
0.0
 11
243.3790388756426
 21
643.2981035285101
 31
0.0
 12
244.1080362701317
 22
642.8943619734617
 32
0.0
 13
244.1080362701317
 23
642.8943619734617
 33
0.0
  0
ARC
  5
30D
  8
0
  6
BYBLOCK
 62
     0
 10
181.7770352131944
 20
675.9863164991563
 30
0.0
 40
70.15415186327513
 50
332.0418895430092
 51
72.95811045699125
  0
ENDBLK
  5
42F
  8
0
  0
BLOCK
  8
0
  2
NRE-348
 70
     0
 10
0.0
 20
0.0
 30
0.0
  3
NRE-348
  1

  0
LINE
  5
3FD
  8
0
 10
100.1492419272793
 20
-173.1188301179041
 30
0.0
 11
-100.1492419272793
 21
173.1188301179043
 31
0.0
  0
LINE
  5
3FE
  8
0
 10
449.7235392637137
 20
320.9648559249601
 30
0.0
 11
-100.1492419272793
 21
173.1188301179043
 31
0.0
  0
LINE
  5
3FF
  8
0
 10
100.1492419272695
 20
-173.1188301179068
 30
0.0
 11
450.0682845033645
 21
-79.03499551341179
 31
0.0
  0
POLYLINE
  5
400
  8
0
 66
     1
 10
0.0
 20
0.0
 30
0.0
 40
9.0
 41
9.0
  0
VERTEX
  5
436
  8
0
 10
449.895911883539
 20
120.9649302057744
 30
0.0
 42
0.1316524975873957
  0
VERTEX
  5
437
  8
0
 10
0.0
 20
0.0000000000002274
 30
0.0
 42
7.595754112725182
  0
SEQEND
  5
435
  8
0
  0
TEXT
  5
401
  8
0
 62
     2
 10
-7.609642738732717
 20
164.5724155391362
 30
0.0
 40
20.00000000000022
  1
DL 08/2012
 50
15.0493811242157
  0
LINE
  5
402
  8
0
 10
800.7739817123012
 20
-172.5149872840761
 30
0.0
 11
1000.475349296116
 21
174.0674181913805
 31
0.0
  0
LINE
  5
403
  8
0
 10
1000.475349296116
 20
174.0674181913805
 30
0.0
 11
450.3485390315862
 21
320.9653945893972
 31
0.0
  0
LINE
  5
404
  8
0
 10
450.693284271227
 20
-79.03445684897474
 30
0.0
 11
800.7739817123012
 21
-172.5149872840761
 31
0.0
  0
POLYLINE
  5
405
  8
0
 66
     1
 10
0.0
 20
0.0
 30
0.0
 40
9.0
 41
9.0
  0
VERTEX
  5
439
  8
0
 10
900.6246655042087
 20
0.7762154536524122
 30
0.0
 42
0.1316524975873957
  0
VERTEX
  5
43A
  8
0
 10
450.5209116514116
 20
120.9654688702101
 30
0.0
 42
7.595754112725182
  0
SEQEND
  5
438
  8
0
  0
LINE
  5
406
  8
BEDIENRAUM
 10
100.1492419272793
 20
-173.1188301179041
 30
0.0
 11
450.671588672756
 21
-779.034735530563
 31
0.0
  0
LINE
  5
407
  8
BEDIENRAUM
 10
450.671588672756
 20
-779.034735530563
 30
0.0
 11
800.6127401790825
 21
-173.1188301179041
 31
0.0
  0
TEXT
  5
408
  8
0
 10
-57.2180638212692
 20
129.5584754222906
 30
0.0
 40
20.00000000000009
  1
fN1G
 50
300.4109974360612
  0
TEXT
  5
409
  8
0
 10
928.7841779923546
 20
71.18877400102656
 30
0.0
 40
20.00000000000012
  1
fN1G
 50
59.66128859270796
  0
POLYLINE
  5
40A
  8
0
 66
     1
 10
0.0
 20
0.0
 30
0.0
 40
9.0
 41
9.0
  0
VERTEX
  5
43C
  8
0
 10
204.5614854620561
 20
125.7509731961738
 30
0.0
 42
-0.2106186564782418
  0
VERTEX
  5
43D
  8
0
 10
901.7586434227046
 20
80.52563543551378
 30
0.0
 42
-4.747917476642463
  0
SEQEND
  5
43B
  8
0
  0
POLYLINE
  5
40B
  8
0
 66
     1
 10
0.0
 20
0.0
 30
0.0
 40
9.0
 41
9.0
  0
VERTEX
  5
43F
  8
0
 10
204.5614854620561
 20
125.7509731961738
 30
0.0
  0
VERTEX
  5
440
  8
0
 10
0.0
 20
0.0
 30
0.0
  0
SEQEND
  5
43E
  8
0
  0
TEXT
  5
40C
  8
0
 10
299.4216969611638
 20
-62.82455951093993
 30
0.0
 40
20.0
  1
Brennstoffhandel
  0
TEXT
  5
40D
  8
0
 10
324.9437018678598
 20
44.81707653281101
 30
0.0
 40
50.0
  1
KaEli
  0
TEXT
  5
40E
  8
0
 10
266.3932200230868
 20
-28.74634937472436
 30
0.0
 40
50.0
  1
NRE-348
  0
TEXT
  5
40F
  8
0
 10
271.9458704331529
 20
202.3945585974112
 30
0.0
 40
50.0
  1
942, 60°
  0
ENDBLK
  5
431
  8
0
  0
ENDSEC
  0
SECTION
  2
ENTITIES
  0
INSERT
  5
412
  8
0
  2
NRE-348
 10
0.0
 20
0.0
 30
0.0
  0
ENDSEC
  0
EOF
