  0
SECTION
  2
HEADER
  9
$ACADVER
  1
AC1009
  9
$DWGCODEPAGE
  3
ansi_1252
  9
$INSBASE
 10
0.0
 20
0.0
 30
0.0
  9
$EXTMIN
 10
-0.0000000000111413
 20
-260.8963739909691
 30
0.0
  9
$EXTMAX
 10
497.4883125888409
 20
201.0430313740881
 30
0.0
  9
$LIMMIN
 10
0.0
 20
0.0
  9
$LIMMAX
 10
420.0
 20
297.0
  9
$ORTHOMODE
 70
     0
  9
$REGENMODE
 70
     1
  9
$FILLMODE
 70
     1
  9
$QTEXTMODE
 70
     0
  9
$MIRRTEXT
 70
     0
  9
$DRAGMODE
 70
     2
  9
$LTSCALE
 40
1.0
  9
$OSMODE
 70
    37
  9
$ATTMODE
 70
     1
  9
$TEXTSIZE
 40
40.0
  9
$TRACEWID
 40
1.0
  9
$TEXTSTYLE
  7
STANDARD
  9
$CLAYER
  8
0
  9
$CELTYPE
  6
BYLAYER
  9
$CECOLOR
 62
   256
  9
$DIMSCALE
 40
1.0
  9
$DIMASZ
 40
2.5
  9
$DIMEXO
 40
0.625
  9
$DIMDLI
 40
3.75
  9
$DIMRND
 40
0.0
  9
$DIMDLE
 40
0.0
  9
$DIMEXE
 40
1.25
  9
$DIMTP
 40
0.0
  9
$DIMTM
 40
0.0
  9
$DIMTXT
 40
20.0
  9
$DIMCEN
 40
2.5
  9
$DIMTSZ
 40
0.0
  9
$DIMTOL
 70
     0
  9
$DIMLIM
 70
     0
  9
$DIMTIH
 70
     0
  9
$DIMTOH
 70
     0
  9
$DIMSE1
 70
     0
  9
$DIMSE2
 70
     0
  9
$DIMTAD
 70
     1
  9
$DIMZIN
 70
     8
  9
$DIMBLK
  1

  9
$DIMASO
 70
     1
  9
$DIMSHO
 70
     1
  9
$DIMPOST
  1

  9
$DIMAPOST
  1

  9
$DIMALT
 70
     0
  9
$DIMALTD
 70
     3
  9
$DIMALTF
 40
0.03937007874016
  9
$DIMLFAC
 40
1.0
  9
$DIMTOFL
 70
     1
  9
$DIMTVP
 40
0.0
  9
$DIMTIX
 70
     0
  9
$DIMSOXD
 70
     0
  9
$DIMSAH
 70
     0
  9
$DIMBLK1
  1

  9
$DIMBLK2
  1

  9
$DIMSTYLE
  2
ISO-25
  9
$DIMCLRD
 70
     0
  9
$DIMCLRE
 70
     0
  9
$DIMCLRT
 70
     0
  9
$DIMTFAC
 40
1.0
  9
$DIMGAP
 40
0.625
  9
$LUNITS
 70
     2
  9
$LUPREC
 70
     4
  9
$SKETCHINC
 40
1.0
  9
$FILLETRAD
 40
0.0
  9
$AUNITS
 70
     0
  9
$AUPREC
 70
     0
  9
$MENU
  1
.
  9
$ELEVATION
 40
0.0
  9
$PELEVATION
 40
0.0
  9
$THICKNESS
 40
0.0
  9
$LIMCHECK
 70
     0
  9
$CHAMFERA
 40
0.0
  9
$CHAMFERB
 40
0.0
  9
$SKPOLY
 70
     0
  9
$TDCREATE
 40
2453353.800459144
  9
$TDUPDATE
 40
2456154.445477164
  9
$TDINDWG
 40
19526816.11518314
  9
$TDUSRTIMER
 40
19526816.11518314
  9
$USRTIMER
 70
     1
  9
$ANGBASE
 50
0.0
  9
$ANGDIR
 70
     0
  9
$PDMODE
 70
     0
  9
$PDSIZE
 40
0.0
  9
$PLINEWID
 40
9.0
  9
$COORDS
 70
     1
  9
$SPLFRAME
 70
     0
  9
$SPLINETYPE
 70
     6
  9
$SPLINESEGS
 70
     8
  9
$ATTDIA
 70
     0
  9
$ATTREQ
 70
     1
  9
$HANDLING
 70
     1
  9
$HANDSEED
  5
1978
  9
$SURFTAB1
 70
     6
  9
$SURFTAB2
 70
     6
  9
$SURFTYPE
 70
     6
  9
$SURFU
 70
     6
  9
$SURFV
 70
     6
  9
$UCSNAME
  2

  9
$UCSORG
 10
0.0
 20
0.0
 30
0.0
  9
$UCSXDIR
 10
1.0
 20
0.0
 30
0.0
  9
$UCSYDIR
 10
0.0
 20
1.0
 30
0.0
  9
$PUCSNAME
  2

  9
$PUCSORG
 10
0.0
 20
0.0
 30
0.0
  9
$PUCSXDIR
 10
1.0
 20
0.0
 30
0.0
  9
$PUCSYDIR
 10
0.0
 20
1.0
 30
0.0
  9
$USERI1
 70
     0
  9
$USERI2
 70
     0
  9
$USERI3
 70
     0
  9
$USERI4
 70
     0
  9
$USERI5
 70
     0
  9
$USERR1
 40
0.0
  9
$USERR2
 40
0.0
  9
$USERR3
 40
0.0
  9
$USERR4
 40
0.0
  9
$USERR5
 40
0.0
  9
$WORLDVIEW
 70
     1
  9
$SHADEDGE
 70
     3
  9
$SHADEDIF
 70
    70
  9
$TILEMODE
 70
     1
  9
$MAXACTVP
 70
    64
  9
$PLIMCHECK
 70
     0
  9
$PEXTMIN
 10
1.000000000000000E+20
 20
1.000000000000000E+20
 30
1.000000000000000E+20
  9
$PEXTMAX
 10
-1.000000000000000E+20
 20
-1.000000000000000E+20
 30
-1.000000000000000E+20
  9
$PLIMMIN
 10
0.0
 20
0.0
  9
$PLIMMAX
 10
420.0
 20
297.0
  9
$UNITMODE
 70
     0
  9
$VISRETAIN
 70
     1
  9
$PLINEGEN
 70
     0
  9
$PSLTSCALE
 70
     1
  0
ENDSEC
  0
SECTION
  2
TABLES
  0
TABLE
  2
VPORT
 70
     1
  0
VPORT
  2
*ACTIVE
 70
     0
 10
0.0
 20
0.0
 11
1.0
 21
1.0
 12
303.6720631787656
 22
-116.2349238571527
 13
0.0
 23
0.0
 14
10.0
 24
10.0
 15
10.0
 25
10.0
 16
0.0
 26
0.0
 36
1.0
 17
0.0
 27
0.0
 37
0.0
 40
1384.680457231067
 41
1.664827586206897
 42
50.0
 43
0.0
 44
0.0
 50
0.0
 51
0.0
 71
    16
 72
  1000
 73
     1
 74
     1
 75
     0
 76
     0
 77
     0
 78
     0
  0
ENDTAB
  0
TABLE
  2
LTYPE
 70
     1
  0
LTYPE
  2
CONTINUOUS
 70
     0
  3
Solid line
 72
    65
 73
     0
 40
0.0
  0
ENDTAB
  0
TABLE
  2
LAYER
 70
     3
  0
LAYER
  2
0
 70
     0
 62
     7
  6
CONTINUOUS
  0
LAYER
  2
BEDIENRAUM
 70
     0
 62
     2
  6
CONTINUOUS
  0
LAYER
  2
DEFPOINTS
 70
     0
 62
     7
  6
CONTINUOUS
  0
ENDTAB
  0
TABLE
  2
STYLE
 70
     1
  0
STYLE
  2
STANDARD
 70
     0
 40
0.0
 41
1.0
 50
0.0
 71
     0
 42
2.5
  3
txt
  4

  0
ENDTAB
  0
TABLE
  2
VIEW
 70
     0
  0
ENDTAB
  0
TABLE
  2
UCS
 70
     0
  0
ENDTAB
  0
TABLE
  2
APPID
 70
     1
  0
APPID
  2
ACAD
 70
     0
  0
ENDTAB
  0
TABLE
  2
DIMSTYLE
 70
     2
  0
DIMSTYLE
  2
STANDARD
 70
     0
  3

  4

  5

  6

  7

 40
1.0
 41
0.18
 42
0.0625
 43
0.38
 44
0.18
 45
0.0
 46
0.0
 47
0.0
 48
0.0
140
0.18
141
0.09
142
0.0
143
25.4
144
1.0
145
0.0
146
1.0
147
0.09
 71
     0
 72
     0
 73
     1
 74
     1
 75
     0
 76
     0
 77
     0
 78
     0
170
     0
171
     2
172
     0
173
     0
174
     0
175
     0
176
     0
177
     0
178
     0
  0
DIMSTYLE
  2
ISO-25
 70
     0
  3

  4

  5

  6

  7

 40
1.0
 41
2.5
 42
0.625
 43
3.75
 44
1.25
 45
0.0
 46
0.0
 47
0.0
 48
0.0
140
2.5
141
2.5
142
0.0
143
0.03937007874016
144
1.0
145
0.0
146
1.0
147
0.625
 71
     0
 72
     0
 73
     0
 74
     0
 75
     0
 76
     0
 77
     1
 78
     8
170
     0
171
     3
172
     1
173
     0
174
     0
175
     0
176
     0
177
     0
178
     0
  0
ENDTAB
  0
ENDSEC
  0
SECTION
  2
BLOCKS
  0
BLOCK
  8
0
  2
$MODEL_SPACE
 70
     0
 10
0.0
 20
0.0
 30
0.0
  3
$MODEL_SPACE
  1

  0
ENDBLK
  5
21
  8
0
  0
BLOCK
 67
     1
  8
0
  2
$PAPER_SPACE
 70
     0
 10
0.0
 20
0.0
 30
0.0
  3
$PAPER_SPACE
  1

  0
ENDBLK
  5
76
 67
     1
  8
0
  0
BLOCK
  8
0
  2
*D1
 70
     1
 10
0.0
 20
0.0
 30
0.0
  3
*D1
  1

  0
POINT
  5
5E4
  8
DEFPOINTS
  6
BYBLOCK
 62
     0
 10
-103.4664214442619
 20
611.2100232627919
 30
0.0
  0
POINT
  5
5E5
  8
DEFPOINTS
  6
BYBLOCK
 62
     0
 10
156.0722576129024
 20
784.6282243225844
 30
0.0
  0
LINE
  5
5E6
  8
0
  6
BYBLOCK
 62
     0
 10
-103.1191900486247
 20
610.6903547551028
 30
0.0
 11
-53.89563257408147
 21
537.0220949798055
 31
0.0
  0
LINE
  5
5E7
  8
0
  6
BYBLOCK
 62
     0
 10
156.4194890085396
 20
784.1085558148953
 30
0.0
 11
205.643046483084
 21
710.4402960395963
 31
0.0
  0
LINE
  5
5E8
  8
0
  6
BYBLOCK
 62
     0
 10
-52.51142133459962
 20
539.4503575777327
 30
0.0
 11
202.8699096610531
 21
710.0907074724255
 31
0.0
  0
SOLID
  5
5E9
  8
0
  6
BYBLOCK
 62
     0
 10
-54.59009536535598
 20
538.0614319951837
 30
0.0
 11
-52.27993373750807
 21
539.1039119059399
 31
0.0
 12
-52.74290893169117
 22
539.7968032495255
 32
0.0
 13
-52.74290893169117
 23
539.7968032495255
 33
0.0
  0
SOLID
  5
5EA
  8
0
  6
BYBLOCK
 62
     0
 10
204.9485836918095
 20
711.4796330549746
 30
0.0
 11
203.1013972581446
 21
709.7442618006328
 31
0.0
 12
202.6384220639615
 22
710.4371531442183
 32
0.0
 13
202.6384220639615
 23
710.4371531442183
 33
0.0
  0
TEXT
  5
5EB
  8
0
  6
BYBLOCK
 62
     0
 10
25.71767456780832
 20
618.0793041464337
 30
0.0
 40
20.0
  1
312,14
 50
11.25000000000001
  0
ENDBLK
  5
1861
  8
0
  0
BLOCK
  8
0
  2
*D2
 70
     1
 10
0.0
 20
0.0
 30
0.0
  3
*D2
  1

  0
POINT
  5
5EF
  8
DEFPOINTS
  6
BYBLOCK
 62
     0
 10
156.0722576129024
 20
784.6282243225844
 30
0.0
  0
POINT
  5
5F0
  8
DEFPOINTS
  6
BYBLOCK
 62
     0
 10
2.998884666866544
 20
1154.180037327099
 30
0.0
  0
LINE
  5
5F1
  8
0
  6
BYBLOCK
 62
     0
 10
156.649682320722
 20
784.8674014678126
 30
0.0
 11
232.7023490489054
 21
816.3694474812672
 31
0.0
  0
LINE
  5
5F2
  8
0
  6
BYBLOCK
 62
     0
 10
3.576309374686098
 20
1154.419214472327
 30
0.0
 11
79.6289761028695
 21
1185.921260485782
 31
0.0
  0
LINE
  5
5F3
  8
0
  6
BYBLOCK
 62
     0
 10
230.5907910523536
 20
818.2007920220891
 30
0.0
 11
79.43083526814311
 21
1183.133207364047
 31
0.0
  0
SOLID
  5
5F4
  8
0
  6
BYBLOCK
 62
     0
 10
231.5474996332663
 20
815.8910931908108
 30
0.0
 11
230.9757408575667
 21
818.3602434522412
 31
0.0
 12
230.2058412471405
 22
818.0413405919369
 32
0.0
 13
230.2058412471405
 23
818.0413405919369
 33
0.0
  0
SOLID
  5
5F5
  8
0
  6
BYBLOCK
 62
     0
 10
78.4741266872304
 20
1185.442906195326
 30
0.0
 11
79.81578507335624
 21
1183.292658794199
 31
0.0
 12
79.04588546293
 22
1182.973755933895
 32
0.0
 13
79.04588546293
 23
1182.973755933895
 33
0.0
  0
TEXT
  5
5F6
  8
0
  6
BYBLOCK
 62
     0
 10
170.0892814942374
 20
979.9298109083907
 30
0.0
 40
20.0
  1
400
 50
78.75
  0
ENDBLK
  5
1863
  8
0
  0
BLOCK
  8
0
  2
*D3
 70
     1
 10
0.0
 20
0.0
 30
0.0
  3
*D3
  1

  0
POINT
  5
5FA
  8
DEFPOINTS
  6
BYBLOCK
 62
     0
 10
-34.83727134273953
 20
1245.524598313555
 30
0.0
  0
POINT
  5
5FB
  8
DEFPOINTS
  6
BYBLOCK
 62
     0
 10
-386.3091339188824
 20
894.0527357374124
 30
0.0
  0
LINE
  5
5FC
  8
0
  6
BYBLOCK
 62
     0
 10
-35.27921308098112
 20
1245.966540051797
 30
0.0
 11
-85.79023890950357
 21
1296.477565880319
 31
0.0
  0
LINE
  5
5FD
  8
0
  6
BYBLOCK
 62
     0
 10
-386.751075657124
 20
894.4946774756539
 30
0.0
 11
-437.2621014856466
 21
945.0057033041766
 31
0.0
  0
LINE
  5
5FE
  8
0
  6
BYBLOCK
 62
     0
 10
-86.67412238598676
 20
1293.82591545087
 30
0.0
 11
-434.610451056197
 21
945.8895867806598
 31
0.0
  0
SOLID
  5
5FF
  8
0
  6
BYBLOCK
 62
     0
 10
-84.9063554330204
 20
1295.593682403836
 30
0.0
 11
-86.96875021148122
 21
1294.120543276364
 31
0.0
 12
-86.3794945604923
 22
1293.531287625375
 32
0.0
 13
-86.3794945604923
 23
1293.531287625375
 33
0.0
  0
SOLID
  5
600
  8
0
  6
BYBLOCK
 62
     0
 10
-436.3782180091633
 20
944.1218198276935
 30
0.0
 11
-434.9050788816915
 21
946.1842146061542
 31
0.0
 12
-434.3158232307025
 22
945.5949589551653
 32
0.0
 13
-434.3158232307025
 23
945.5949589551653
 33
0.0
  0
TEXT
  5
601
  8
0
  6
BYBLOCK
 62
     0
 10
-221.9373634517885
 20
1146.467876122042
 30
0.0
 40
20.0
  1
497,06
 50
191.2499999999999
  0
ENDBLK
  5
1865
  8
0
  0
BLOCK
  8
0
  2
*D4
 70
     1
 10
0.0
 20
0.0
 30
0.0
  3
*D4
  1

  0
POINT
  5
605
  8
DEFPOINTS
  6
BYBLOCK
 62
     0
 10
-103.4664214442619
 20
611.2100232627919
 30
0.0
  0
POINT
  5
606
  8
DEFPOINTS
  6
BYBLOCK
 62
     0
 10
-386.3091339188824
 20
894.0527357374124
 30
0.0
  0
LINE
  5
607
  8
0
  6
BYBLOCK
 62
     0
 10
-103.9083631825035
 20
610.7680815245503
 30
0.0
 11
-152.2875220177403
 21
562.3889226893135
 31
0.0
  0
LINE
  5
608
  8
0
  6
BYBLOCK
 62
     0
 10
-386.751075657124
 20
893.6107939991708
 30
0.0
 11
-435.1302344923607
 21
845.231635163934
 31
0.0
  0
LINE
  5
609
  8
0
  6
BYBLOCK
 62
     0
 10
-153.1714054942234
 20
565.0405731187632
 30
0.0
 11
-432.4785840629111
 21
844.3477516874509
 31
0.0
  0
SOLID
  5
60A
  8
0
  6
BYBLOCK
 62
     0
 10
-151.4036385412571
 20
563.2728061657967
 30
0.0
 11
-152.876777668729
 21
565.3352009442576
 31
0.0
 12
-153.4660333197179
 22
564.7459452932686
 32
0.0
 13
-153.4660333197179
 23
564.7459452932686
 33
0.0
  0
SOLID
  5
60B
  8
0
  6
BYBLOCK
 62
     0
 10
-434.2463510158775
 20
846.1155186404172
 30
0.0
 11
-432.1839562374167
 21
844.6423795129454
 31
0.0
 12
-432.7732118884056
 22
844.0531238619564
 32
0.0
 13
-432.7732118884056
 23
844.0531238619564
 33
0.0
  0
TEXT
  5
60C
  8
0
  6
BYBLOCK
 62
     0
 10
-270.9585279214522
 20
691.3057781399799
 30
0.0
 40
20.0
  1
400
 50
101.25
  0
ENDBLK
  5
1867
  8
0
  0
BLOCK
  8
0
  2
*D5
 70
     1
 10
0.0
 20
0.0
 30
0.0
  3
*D5
  1

  0
TEXT
  5
610
  8
0
  6
BYBLOCK
 62
     0
 10
130.7402612428339
 20
856.7566961297218
 30
0.0
 40
20.0
  1
101,25°
 50
21.53345708353713
  0
POINT
  5
611
  8
DEFPOINTS
  6
BYBLOCK
 62
     0
 10
2.998884666866544
 20
1154.180037327099
 30
0.0
  0
POINT
  5
612
  8
DEFPOINTS
  6
BYBLOCK
 62
     0
 10
-103.4664214442713
 20
611.2100232627854
 30
0.0
  0
POINT
  5
613
  8
DEFPOINTS
  6
BYBLOCK
 62
     0
 10
156.0722576129024
 20
784.6282243225844
 30
0.0
  0
POINT
  5
614
  8
DEFPOINTS
  6
BYBLOCK
 62
     0
 10
156.0722576129024
 20
784.6282243225844
 30
0.0
  0
SOLID
  5
615
  8
0
  6
BYBLOCK
 62
     0
 10
127.7145080957432
 20
853.0898878052893
 30
0.0
 11
125.5871984807239
 21
851.7121487469195
 31
0.0
 12
125.2553539004428
 22
852.476559381973
 32
0.0
 13
125.2553539004428
 23
852.476559381973
 33
0.0
  0
SOLID
  5
616
  8
0
  6
BYBLOCK
 62
     0
 10
94.45838828210162
 20
743.4591530361917
 30
0.0
 11
92.7544233118025
 21
745.3353498518549
 31
0.0
 12
93.45502579095283
 22
745.7865710954296
 32
0.0
 13
93.45502579095283
 23
745.7865710954296
 33
0.0
  0
ARC
  5
617
  8
0
  6
BYBLOCK
 62
     0
 10
156.0722576129024
 20
784.6282243225844
 30
0.0
 40
74.10237057272246
 50
114.4330858329247
 51
211.8169141670757
  0
ARC
  5
618
  8
0
  6
BYBLOCK
 62
     0
 10
156.0722576129024
 20
784.6282243225844
 30
0.0
 40
74.10237057272246
 50
109.766074104716
 51
112.5
  0
LINE
  5
619
  8
0
  6
BYBLOCK
 62
     0
 10
131.0122625102145
 20
854.3645704410206
 30
0.0
 11
225.195356356107
 21
891.5278229038474
 31
0.0
  0
ENDBLK
  5
1869
  8
0
  0
BLOCK
  8
0
  2
*D6
 70
     1
 10
0.0
 20
0.0
 30
0.0
  3
*D6
  1

  0
TEXT
  5
61D
  8
0
  6
BYBLOCK
 62
     0
 10
-34.3541535208725
 20
652.3419541213295
 30
0.0
 40
20.0
  1
101,25°
 50
302.8327208514699
  0
POINT
  5
61E
  8
DEFPOINTS
  6
BYBLOCK
 62
     0
 10
156.0722576129024
 20
784.6282243225844
 30
0.0
  0
POINT
  5
61F
  8
DEFPOINTS
  6
BYBLOCK
 62
     0
 10
-103.4664214442619
 20
611.2100232627919
 30
0.0
  0
POINT
  5
620
  8
DEFPOINTS
  6
BYBLOCK
 62
     0
 10
-386.3091339188824
 20
894.0527357374124
 30
0.0
  0
POINT
  5
621
  8
DEFPOINTS
  6
BYBLOCK
 62
     0
 10
-103.4664214442713
 20
611.2100232627854
 30
0.0
  0
SOLID
  5
622
  8
0
  6
BYBLOCK
 62
     0
 10
-38.54379842431752
 20
654.5899330824069
 30
0.0
 11
-40.30851863513465
 21
656.4091014882025
 31
0.0
 12
-39.62312778942691
 22
656.883109750857
 32
0.0
 13
-39.62312778942691
 23
656.883109750857
 33
0.0
  0
SOLID
  5
623
  8
0
  6
BYBLOCK
 62
     0
 10
-158.6785738916521
 20
666.422175710182
 30
0.0
 11
-157.172606962958
 21
668.4607229185613
 31
0.0
 12
-156.5928601347644
 22
667.8621094709642
 32
0.0
 13
-156.5928601347644
 23
667.8621094709642
 33
0.0
  0
ARC
  5
624
  8
0
  6
BYBLOCK
 62
     0
 10
-103.4664214442618
 20
611.2100232627918
 30
0.0
 40
78.08177479891027
 50
35.58455829706264
 51
133.1654417029378
  0
ARC
  5
625
  8
0
  6
BYBLOCK
 62
     0
 10
-103.4664214442618
 20
611.2100232627918
 30
0.0
 40
78.08177479891027
 50
31.15543192227462
 51
33.7500000000004
  0
LINE
  5
626
  8
0
  6
BYBLOCK
 62
     0
 10
-36.64661888690881
 20
651.6065273435177
 30
0.0
 11
18.24993213463117
 21
566.5304955487785
 31
0.0
  0
ENDBLK
  5
186B
  8
0
  0
BLOCK
  8
0
  2
*D7
 70
     1
 10
0.0
 20
0.0
 30
0.0
  3
*D7
  1

  0
TEXT
  5
62A
  8
0
  6
BYBLOCK
 62
     0
 10
67.65844321266667
 20
1008.957349575457
 30
0.0
 40
20.0
  1
22,50°
 50
22.43105327857628
  0
POINT
  5
62B
  8
DEFPOINTS
  6
BYBLOCK
 62
     0
 10
2.998884666866544
 20
1154.180037327099
 30
0.0
  0
POINT
  5
62C
  8
DEFPOINTS
  6
BYBLOCK
 62
     0
 10
-103.4664214442619
 20
611.2100232627919
 30
0.0
  0
POINT
  5
62D
  8
DEFPOINTS
  6
BYBLOCK
 62
     0
 10
-386.3091339188824
 20
894.0527357374124
 30
0.0
  0
POINT
  5
62E
  8
DEFPOINTS
  6
BYBLOCK
 62
     0
 10
156.0722576129024
 20
784.6282243225844
 30
0.0
  0
SOLID
  5
62F
  8
0
  6
BYBLOCK
 62
     0
 10
64.69917944543724
 20
1005.222348870255
 30
0.0
 11
62.55054808174138
 21
1003.878103961745
 31
0.0
 12
62.23071899593805
 22
1004.647619263944
 32
0.0
 13
62.23071899593805
 23
1004.647619263944
 33
0.0
  0
SOLID
  5
630
  8
0
  6
BYBLOCK
 62
     0
 10
-272.3018549272125
 20
780.0454567457425
 30
0.0
 11
-270.8262350897425
 21
782.1060773334239
 31
0.0
 12
-270.2376889444117
 22
781.5161130300452
 32
0.0
 13
-270.2376889444117
 23
781.5161130300452
 33
0.0
  0
ARC
  5
631
  8
0
  6
BYBLOCK
 62
     0
 10
462.2190035049736
 20
45.52459831355621
 30
0.0
 40
1038.769359840726
 50
112.6378934428468
 51
134.8621065571532
  0
ARC
  5
632
  8
0
  6
BYBLOCK
 62
     0
 10
462.2190035049736
 20
45.52459831355621
 30
0.0
 40
1038.769359840726
 50
112.3049891758996
 51
112.5
  0
LINE
  5
633
  8
0
  6
BYBLOCK
 62
     0
 10
67.96788463253753
 20
1006.569778423078
 30
0.0
 11
155.2717376156876
 21
1042.609197873127
 31
0.0
  0
ENDBLK
  5
186D
  8
0
  0
BLOCK
  8
0
  2
*D8
 70
     1
 10
0.0
 20
0.0
 30
0.0
  3
*D8
  1

  0
LINE
  5
637
  8
0
  6
BYBLOCK
 62
     0
 10
-25.47077602085896
 20
938.6278096862613
 30
0.0
 11
18.2676357450036
 21
817.0276016999688
 31
0.0
  0
SOLID
  5
638
  8
0
  6
BYBLOCK
 62
     0
 10
-26.31692963300599
 20
940.9802603371041
 30
0.0
 11
-25.07870091238509
 21
938.7688352882859
 31
0.0
 12
-25.86285112933283
 22
938.4867840842369
 32
0.0
 13
-25.86285112933283
 23
938.4867840842369
 33
0.0
  0
TEXT
  5
639
  8
0
  6
BYBLOCK
 62
     0
 10
-7.281936671507651
 20
889.9063407075383
 30
0.0
 40
20.0
  1
R1000
 50
289.7831646732422
  0
POINT
  5
63A
  8
DEFPOINTS
  6
BYBLOCK
 62
     0
 10
312.1445152258077
 20
0.0000000000008812
 30
0.0
  0
POINT
  5
63B
  8
DEFPOINTS
  6
BYBLOCK
 62
     0
 10
-26.31692963300599
 20
940.9802603371041
 30
0.0
  0
ENDBLK
  5
186F
  8
0
  0
BLOCK
  8
0
  2
*D9
 70
     1
 10
0.0
 20
0.0
 30
0.0
  3
*D9
  1

  0
POINT
  5
63F
  8
DEFPOINTS
  6
BYBLOCK
 62
     0
 10
-34.25984663492
 20
1245.763775458783
 30
0.0
  0
POINT
  5
640
  8
DEFPOINTS
  6
BYBLOCK
 62
     0
 10
156.4194890085396
 20
784.1085558148953
 30
0.0
  0
LINE
  5
641
  8
0
  6
BYBLOCK
 62
     0
 10
-33.68218132631517
 20
1246.002370913967
 30
0.0
 11
101.4757871588836
 21
1301.82721712183
 31
0.0
  0
LINE
  5
642
  8
0
  6
BYBLOCK
 62
     0
 10
156.9971543171445
 20
784.3471512700794
 30
0.0
 11
292.1551228023433
 21
840.1719974779427
 31
0.0
  0
LINE
  5
643
  8
0
  6
BYBLOCK
 62
     0
 10
101.2748383624103
 20
1299.039364977043
 30
0.0
 11
290.0454103643974
 21
842.0054678019937
 31
0.0
  0
SOLID
  5
644
  8
0
  6
BYBLOCK
 62
     0
 10
100.3204565416739
 20
1301.350026211462
 30
0.0
 11
100.8897281566737
 21
1298.880301340254
 31
0.0
 12
101.6599485681469
 22
1299.198428613832
 32
0.0
 13
101.6599485681469
 23
1299.198428613832
 33
0.0
  0
SOLID
  5
645
  8
0
  6
BYBLOCK
 62
     0
 10
290.9997921851337
 20
839.6948065675745
 30
0.0
 11
289.6603001586607
 21
841.8464041652044
 31
0.0
 12
290.430520570134
 22
842.1645314387832
 32
0.0
 13
290.430520570134
 23
842.1645314387832
 33
0.0
  0
TEXT
  5
646
  8
0
  6
BYBLOCK
 62
     0
 10
209.0500364606384
 20
1127.551381280271
 30
0.0
 40
20.0
  1
499,48
 50
258.6922930140156
  0
ENDBLK
  5
1871
  8
0
  0
BLOCK
  8
0
  2
*D10
 70
     1
 10
0.0
 20
0.0
 30
0.0
  3
*D10
  1

  0
POINT
  5
64A
  8
DEFPOINTS
  6
BYBLOCK
 62
     0
 10
-103.9083631825036
 20
610.7680815245502
 30
0.0
  0
POINT
  5
64B
  8
DEFPOINTS
  6
BYBLOCK
 62
     0
 10
-33.68218132631525
 20
1246.002370913968
 30
0.0
  0
LINE
  5
64C
  8
0
  6
BYBLOCK
 62
     0
 10
-103.2871477961119
 20
610.699405155177
 30
0.0
 11
301.9860404601428
 21
565.8957963209037
 31
0.0
  0
LINE
  5
64D
  8
0
  6
BYBLOCK
 62
     0
 10
-33.06096593992361
 20
1245.933694544594
 30
0.0
 11
372.2122223163311
 21
1201.130085710321
 31
0.0
  0
LINE
  5
64E
  8
0
  6
BYBLOCK
 62
     0
 10
301.0183151648521
 20
568.5180106052167
 30
0.0
 11
370.6950860660552
 21
1198.782576903501
 31
0.0
  0
SOLID
  5
64F
  8
0
  6
BYBLOCK
 62
     0
 10
300.7436096873595
 20
566.0331490596501
 30
0.0
 11
301.43245875578
 21
568.4722263589679
 31
0.0
 12
300.6041715739242
 22
568.5637948514654
 32
0.0
 13
300.6041715739242
 23
568.5637948514654
 33
0.0
  0
SOLID
  5
650
  8
0
  6
BYBLOCK
 62
     0
 10
370.9697915435478
 20
1201.267438449067
 30
0.0
 11
371.1092296569831
 21
1198.736792657252
 31
0.0
 12
370.2809424751274
 22
1198.82836114975
 32
0.0
 13
370.2809424751274
 23
1198.82836114975
 33
0.0
  0
TEXT
  5
651
  8
0
  6
BYBLOCK
 62
     0
 10
305.3103279445407
 20
850.3486226932346
 30
0.0
 40
20.0
  1
639,1
 50
49.94147555639924
  0
ENDBLK
  5
1873
  8
0
  0
BLOCK
  8
0
  2
*D11
 70
     1
 10
0.0
 20
0.0
 30
0.0
  3
*D11
  1

  0
POINT
  5
655
  8
DEFPOINTS
  6
BYBLOCK
 62
     0
 10
156.4194890085396
 20
784.1085558148953
 30
0.0
  0
POINT
  5
656
  8
DEFPOINTS
  6
BYBLOCK
 62
     0
 10
-386.3091339188824
 20
894.0527357374124
 30
0.0
  0
LINE
  5
657
  8
0
  6
BYBLOCK
 62
     0
 10
156.2953991227392
 20
783.4959983071934
 30
0.0
 11
89.76006159964015
 21
455.0508533675367
 31
0.0
  0
LINE
  5
658
  8
0
  6
BYBLOCK
 62
     0
 10
-386.4332238046828
 20
893.4401782297105
 30
0.0
 11
-452.9685613277819
 21
564.9950332900537
 31
0.0
  0
LINE
  5
659
  8
0
  6
BYBLOCK
 62
     0
 10
87.5580113404331
 20
456.7723279261423
 30
0.0
 11
-450.2701515253732
 21
565.723788762256
 31
0.0
  0
SOLID
  5
65A
  8
0
  6
BYBLOCK
 62
     0
 10
90.00824137124096
 20
456.2759683829407
 30
0.0
 11
87.64073793096672
 21
457.1806995979437
 31
0.0
 12
87.47528474989949
 22
456.3639562543408
 32
0.0
 13
87.47528474989949
 23
456.3639562543408
 33
0.0
  0
SOLID
  5
65B
  8
0
  6
BYBLOCK
 62
     0
 10
-452.7203815561811
 20
566.2201483054577
 30
0.0
 11
-450.1874249348396
 21
566.1321604340575
 31
0.0
 12
-450.3528781159068
 22
565.3154170904547
 32
0.0
 13
-450.3528781159068
 23
565.3154170904547
 33
0.0
  0
TEXT
  5
65C
  8
0
  6
BYBLOCK
 62
     0
 10
-136.5909704194349
 20
492.490006239012
 30
0.0
 40
20.0
  1
553,75
 50
134.7981816614707
  0
ENDBLK
  5
1875
  8
0
  0
BLOCK
  8
0
  2
*D12
 70
     1
 10
0.0
 20
0.0
 30
0.0
  3
*D12
  1

  0
POINT
  5
660
  8
DEFPOINTS
  6
BYBLOCK
 62
     0
 10
156.2953991227392
 20
783.4959983071934
 30
0.0
  0
POINT
  5
661
  8
DEFPOINTS
  6
BYBLOCK
 62
     0
 10
-34.83727134273953
 20
1245.524598313555
 30
0.0
  0
LINE
  5
662
  8
0
  6
BYBLOCK
 62
     0
 10
156.8150676304283
 20
783.8432297028306
 30
0.0
 11
542.7203989351741
 21
1041.696928339832
 31
0.0
  0
LINE
  5
663
  8
0
  6
BYBLOCK
 62
     0
 10
-34.31760283505041
 20
1245.871829709192
 30
0.0
 11
270.2963333974914
 21
1449.408354712288
 31
0.0
  0
LINE
  5
664
  8
0
  6
BYBLOCK
 62
     0
 10
540.2921363372469
 20
1043.081139579313
 30
0.0
 11
270.6459219646623
 21
1446.635217890258
 31
0.0
  0
SOLID
  5
665
  8
0
  6
BYBLOCK
 62
     0
 10
541.681061919796
 20
1041.002465548557
 30
0.0
 11
540.6385820090397
 21
1043.312627176405
 31
0.0
 12
539.9456906654542
 22
1042.849651982222
 32
0.0
 13
539.9456906654542
 23
1042.849651982222
 33
0.0
  0
SOLID
  5
666
  8
0
  6
BYBLOCK
 62
     0
 10
269.2569963821132
 20
1448.713891921014
 30
0.0
 11
270.992367636455
 21
1446.866705487349
 31
0.0
 12
270.2994762928695
 22
1446.403730293166
 32
0.0
 13
270.2994762928695
 23
1446.403730293166
 33
0.0
  0
TEXT
  5
667
  8
0
  6
BYBLOCK
 62
     0
 10
424.0168921225836
 20
1201.705581856752
 30
0.0
 40
20.0
  1
490,35
 50
90.0
  0
ENDBLK
  5
1877
  8
0
  0
BLOCK
  8
0
  2
*D13
 70
     1
 10
0.0
 20
0.0
 30
0.0
  3
*D13
  1

  0
POINT
  5
66B
  8
DEFPOINTS
  6
BYBLOCK
 62
     0
 10
-35.27921308098103
 20
1245.966540051797
 30
0.0
  0
POINT
  5
66C
  8
DEFPOINTS
  6
BYBLOCK
 62
     0
 10
156.9971543171445
 20
784.3471512700794
 30
0.0
  0
LINE
  5
66D
  8
0
  6
BYBLOCK
 62
     0
 10
-35.62644447661828
 20
1246.486208559486
 30
0.0
 11
-91.1906511381074
 21
1329.643920447006
 31
0.0
  0
LINE
  5
66E
  8
0
  6
BYBLOCK
 62
     0
 10
156.6499229215072
 20
784.8668197777685
 30
0.0
 11
-171.502329872641
 21
1275.981372341153
 31
0.0
  0
LINE
  5
66F
  8
0
  6
BYBLOCK
 62
     0
 10
-92.57486237758926
 20
1327.215657849079
 30
0.0
 11
-168.7291930506102
 21
1276.330960908324
 31
0.0
  0
SOLID
  5
670
  8
0
  6
BYBLOCK
 62
     0
 10
-90.4961883468329
 20
1328.604583431628
 30
0.0
 11
-92.8063499746808
 21
1327.562103520872
 31
0.0
 12
-92.3433747804977
 22
1326.869212177286
 32
0.0
 13
-92.3433747804977
 23
1326.869212177286
 33
0.0
  0
SOLID
  5
671
  8
0
  6
BYBLOCK
 62
     0
 10
-170.8078670813665
 20
1274.942035325775
 30
0.0
 11
-168.9606806477017
 21
1276.677406580117
 31
0.0
 12
-168.4977054535186
 22
1275.984515236531
 32
0.0
 13
-168.4977054535186
 23
1275.984515236531
 33
0.0
  0
TEXT
  5
672
  8
0
  6
BYBLOCK
 62
     0
 10
-176.7789273561472
 20
1295.745388094912
 30
0.0
 40
20.0
  1
96,59
 50
11.25000000000001
  0
ENDBLK
  5
1879
  8
0
  0
BLOCK
  8
0
  2
*D14
 70
     1
 10
0.0
 20
0.0
 30
0.0
  3
*D14
  1

  0
POINT
  5
676
  8
DEFPOINTS
  6
BYBLOCK
 62
     0
 10
-103.9083631825036
 20
610.7680815245502
 30
0.0
  0
POINT
  5
677
  8
DEFPOINTS
  6
BYBLOCK
 62
     0
 10
-386.4332238046828
 20
893.4401782297106
 30
0.0
  0
LINE
  5
678
  8
0
  6
BYBLOCK
 62
     0
 10
-104.4280316901927
 20
610.420850128913
 30
0.0
 11
-224.0745585294676
 21
530.4755967936713
 31
0.0
  0
LINE
  5
679
  8
0
  6
BYBLOCK
 62
     0
 10
-386.9528923123719
 20
893.0929468340732
 30
0.0
 11
-441.8556794238496
 21
856.4080773239529
 31
0.0
  0
LINE
  5
67A
  8
0
  6
BYBLOCK
 62
     0
 10
-224.4241470966384
 20
533.2487336157022
 30
0.0
 11
-439.4274168259224
 21
855.023866084471
 31
0.0
  0
SOLID
  5
67B
  8
0
  6
BYBLOCK
 62
     0
 10
-223.0352215140894
 20
531.1700595849459
 30
0.0
 11
-224.0777014248457
 21
533.4802212127937
 31
0.0
 12
-224.7705927684312
 22
533.0172460186106
 32
0.0
 13
-224.7705927684312
 23
533.0172460186106
 33
0.0
  0
SOLID
  5
67C
  8
0
  6
BYBLOCK
 62
     0
 10
-440.8163424084714
 20
857.1025401152274
 30
0.0
 11
-439.0809711541297
 21
855.2553536815626
 31
0.0
 12
-439.7738624977152
 22
854.7923784873794
 32
0.0
 13
-439.7738624977152
 23
854.7923784873794
 33
0.0
  0
TEXT
  5
67D
  8
0
  6
BYBLOCK
 62
     0
 10
-313.0914173305659
 20
673.3392335759199
 30
0.0
 40
20.0
  1
392
 50
90.0
  0
ENDBLK
  5
187B
  8
0
  0
BLOCK
  8
0
  2
*D15
 70
     1
 10
0.0
 20
0.0
 30
0.0
  3
*D15
  1

  0
POINT
  5
681
  8
DEFPOINTS
  6
BYBLOCK
 62
     0
 10
-386.3091339188824
 20
894.0527357374124
 30
0.0
  0
POINT
  5
682
  8
DEFPOINTS
  6
BYBLOCK
 62
     0
 10
-103.4664214442619
 20
611.2100232627919
 30
0.0
  0
LINE
  5
683
  8
0
  6
BYBLOCK
 62
     0
 10
-386.6563653145196
 20
894.5724042451014
 30
0.0
 11
-415.5207951693059
 21
937.7710763018284
 31
0.0
  0
LINE
  5
684
  8
0
  6
BYBLOCK
 62
     0
 10
-103.8136528398992
 20
611.7296917704809
 30
0.0
 11
-350.6361254050141
 21
981.1256265667765
 31
0.0
  0
LINE
  5
685
  8
0
  6
BYBLOCK
 62
     0
 10
-412.747658347275
 20
938.1206648689993
 30
0.0
 11
-352.020336644496
 21
978.6973639688493
 31
0.0
  0
SOLID
  5
686
  8
0
  6
BYBLOCK
 62
     0
 10
-414.8263323780315
 20
936.7317392864503
 30
0.0
 11
-412.5161707501835
 21
937.7742191972064
 31
0.0
 12
-412.9791459443666
 22
938.4671105407921
 32
0.0
 13
-412.9791459443666
 23
938.4671105407921
 33
0.0
  0
LINE
  5
687
  8
0
  6
BYBLOCK
 62
     0
 10
-349.9416626137396
 20
980.0862895513983
 30
0.0
 11
-279.4105625825879
 21
1027.213663901163
 31
0.0
  0
SOLID
  5
688
  8
0
  6
BYBLOCK
 62
     0
 10
-349.9416626137396
 20
980.0862895513983
 30
0.0
 11
-351.7888490474044
 21
978.3509182970565
 31
0.0
 12
-352.2518242415875
 22
979.043809640642
 32
0.0
 13
-352.2518242415875
 23
979.043809640642
 33
0.0
  0
TEXT
  5
689
  8
0
  6
BYBLOCK
 62
     0
 10
-358.0963402481476
 20
998.6481717811922
 30
0.0
 40
20.0
  1
78,04
 50
11.25000000000001
  0
ENDBLK
  5
187D
  8
0
  0
BLOCK
  8
0
  2
*D16
 70
     1
 10
0.0
 20
0.0
 30
0.0
  3
*D16
  1

  0
POINT
  5
705
  8
DEFPOINTS
 62
     0
 10
-267.8784026555628
 20
646.7156727579006
 30
0.0
  0
POINT
  5
706
  8
DEFPOINTS
 62
     0
 10
267.8784026555629
 20
646.7156727579007
 30
0.0
  0
POINT
  5
707
  8
DEFPOINTS
 62
     0
 10
267.8784026555629
 20
576.0033378496516
 30
0.0
  0
ENDBLK
  5
187F
  8
0
  0
BLOCK
  8
0
  2
*D17
 70
     1
 10
0.0
 20
0.0
 30
0.0
  3
*D17
  1

  0
POINT
  5
712
  8
DEFPOINTS
 62
     0
 10
267.8784026555629
 20
646.7156727579007
 30
0.0
  0
POINT
  5
713
  8
DEFPOINTS
 62
     0
 10
344.4150891285809
 20
831.4915792601581
 30
0.0
  0
POINT
  5
714
  8
DEFPOINTS
 62
     0
 10
414.0707000594457
 20
802.6392805172103
 30
0.0
  0
ENDBLK
  5
1881
  8
0
  0
BLOCK
  8
0
  2
*D18
 70
     1
 10
0.0
 20
0.0
 30
0.0
  3
*D18
  1

  0
POINT
  5
71F
  8
DEFPOINTS
 62
     0
 10
-267.8784026555628
 20
646.7156727579006
 30
0.0
  0
POINT
  5
720
  8
DEFPOINTS
 62
     0
 10
-344.4150891285927
 20
831.4915792601531
 30
0.0
  0
POINT
  5
721
  8
DEFPOINTS
 62
     0
 10
-396.7151616463304
 20
809.8281799102058
 30
0.0
  0
ENDBLK
  5
1883
  8
0
  0
BLOCK
  8
0
  2
*D19
 70
     1
 10
0.0
 20
0.0
 30
0.0
  3
*D19
  1

  0
POINT
  5
72A
  8
DEFPOINTS
 62
     0
 10
-113.7163292284702
 20
946.8488300503888
 30
0.0
  0
POINT
  5
72B
  8
DEFPOINTS
 62
     0
 10
-267.8784026555628
 20
646.7156727579006
 30
0.0
  0
POINT
  5
72C
  8
DEFPOINTS
 62
     0
 10
267.8784026555629
 20
646.7156727579007
 30
0.0
  0
POINT
  5
72D
  8
DEFPOINTS
 62
     0
 10
535.7568053111257
 20
1293.431345515801
 30
0.0
  0
POINT
  5
72E
  8
DEFPOINTS
 62
     0
 10
-535.7568053111256
 20
1293.431345515801
 30
0.0
  0
ENDBLK
  5
1885
  8
0
  0
BLOCK
  8
0
  2
*D20
 70
     1
 10
0.0
 20
0.0
 30
0.0
  3
*D20
  1

  0
POINT
  5
739
  8
DEFPOINTS
 62
     0
 10
-459.2199693523323
 20
1108.655078122958
 30
0.0
  0
POINT
  5
73A
  8
DEFPOINTS
 62
     0
 10
458.9989438350689
 20
1108.12147532155
 30
0.0
  0
POINT
  5
73B
  8
DEFPOINTS
 62
     0
 10
458.9989438350689
 20
1181.938383141927
 30
0.0
  0
ENDBLK
  5
1887
  8
0
  0
BLOCK
  8
0
  2
*D21
 70
     1
 10
0.0
 20
0.0
 30
0.0
  3
*D21
  1

  0
POINT
  5
746
  8
DEFPOINTS
 62
     0
 10
267.8784026555629
 20
646.0906727579007
 30
0.0
  0
POINT
  5
747
  8
DEFPOINTS
 62
     0
 10
458.9989438350689
 20
1108.12147532155
 30
0.0
  0
POINT
  5
748
  8
DEFPOINTS
 62
     0
 10
599.8876964149151
 20
1049.842385508146
 30
0.0
  0
ENDBLK
  5
1889
  8
0
  0
BLOCK
  8
0
  2
*D22
 70
     1
 10
0.0
 20
0.0
 30
0.0
  3
*D22
  1

  0
POINT
  5
753
  8
DEFPOINTS
 62
     0
 10
-267.8784026555628
 20
646.0906727579006
 30
0.0
  0
POINT
  5
754
  8
DEFPOINTS
 62
     0
 10
-459.2199693523323
 20
1108.655078122958
 30
0.0
  0
POINT
  5
755
  8
DEFPOINTS
 62
     0
 10
-563.3554137626791
 20
1065.579046221163
 30
0.0
  0
ENDBLK
  5
188B
  8
0
  0
BLOCK
  8
0
  2
*D23
 70
     1
 10
0.0
 20
0.0
 30
0.0
  3
*D23
  1

  0
POINT
  5
107D
  8
DEFPOINTS
 62
     0
 10
188.1016730623864
 20
880.1237189117974
 30
0.0
  0
POINT
  5
107E
  8
DEFPOINTS
 62
     0
 10
0.0000000000000128
 20
0.0000000000000068
 30
0.0
  0
ENDBLK
  5
188D
  8
0
  0
BLOCK
  8
0
  2
*D24
 70
     1
 10
0.0
 20
0.0
 30
0.0
  3
*D24
  1

  0
POINT
  5
77A
  8
DEFPOINTS
 62
     0
 10
267.8784026555629
 20
646.7156727579007
 30
0.0
  0
POINT
  5
107F
  8
DEFPOINTS
 62
     0
 10
-459.2199693523323
 20
1108.655078122958
 30
0.0
  0
POINT
  5
1080
  8
DEFPOINTS
 62
     0
 10
-505.1831011445711
 20
1036.308536757623
 30
0.0
  0
ENDBLK
  5
188F
  8
0
  0
BLOCK
  8
0
  2
*D25
 70
     1
 10
0.0
 20
0.0
 30
0.0
  3
*D25
  1

  0
POINT
  5
785
  8
DEFPOINTS
 62
     0
 10
-267.8784026555628
 20
646.7156727579006
 30
0.0
  0
POINT
  5
1081
  8
DEFPOINTS
 62
     0
 10
458.9989438350689
 20
1108.12147532155
 30
0.0
  0
POINT
  5
1082
  8
DEFPOINTS
 62
     0
 10
493.6040902180084
 20
1053.606129311611
 30
0.0
  0
ENDBLK
  5
1891
  8
0
  0
BLOCK
  8
0
  2
*D26
 70
     1
 10
0.0
 20
0.0
 30
0.0
  3
*D26
  1

  0
POINT
  5
790
  8
DEFPOINTS
 62
     0
 10
-267.5434511838935
 20
646.1880057117185
 30
0.0
  0
POINT
  5
1083
  8
DEFPOINTS
 62
     0
 10
-459.2199693523323
 20
1108.655078122958
 30
0.0
  0
POINT
  5
1084
  8
DEFPOINTS
 62
     0
 10
-70.77523568402103
 20
1108.655078122958
 30
0.0
  0
ENDBLK
  5
1893
  8
0
  0
BLOCK
  8
0
  2
*D27
 70
     1
 10
0.0
 20
0.0
 30
0.0
  3
*D27
  1

  0
POINT
  5
79B
  8
DEFPOINTS
 62
     0
 10
-266.9184511838935
 20
646.1880057117185
 30
0.0
  0
POINT
  5
1085
  8
DEFPOINTS
 62
     0
 10
-458.5949693523323
 20
1108.655078122958
 30
0.0
  0
POINT
  5
1086
  8
DEFPOINTS
 62
     0
 10
-458.5949693523323
 20
919.2353168089677
 30
0.0
  0
ENDBLK
  5
1895
  8
0
  0
BLOCK
  8
0
  2
*D28
 70
     1
 10
0.0
 20
0.0
 30
0.0
  3
*D28
  1

  0
POINT
  5
7A6
  8
DEFPOINTS
 62
     0
 10
267.8784026555629
 20
646.7156727579007
 30
0.0
  0
POINT
  5
1087
  8
DEFPOINTS
 62
     0
 10
459.333895306738
 20
1107.593808275368
 30
0.0
  0
POINT
  5
1088
  8
DEFPOINTS
 62
     0
 10
459.333895306738
 20
1055.288025314444
 30
0.0
  0
ENDBLK
  5
1897
  8
0
  0
BLOCK
  8
0
  2
*D29
 70
     1
 10
0.0
 20
0.0
 30
0.0
  3
*D29
  1

  0
POINT
  5
108A
  8
DEFPOINTS
 62
     0
 10
556.1066801514058
 20
998.783398751395
 30
0.0
  0
POINT
  5
108B
  8
DEFPOINTS
 62
     0
 10
506.7941829666901
 20
-0.0000000000002801
 30
0.0
  0
ENDBLK
  5
1899
  8
0
  0
BLOCK
  8
0
  2
*D30
 70
     1
 10
0.0
 20
0.0
 30
0.0
  3
*D30
  1

  0
POINT
  5
8AD
  8
DEFPOINTS
 62
     0
 10
350.7219253537905
 20
784.6282243225844
 30
0.0
  0
POINT
  5
8AE
  8
DEFPOINTS
 62
     0
 10
662.8664405795948
 20
784.6282243225822
 30
0.0
  0
POINT
  5
8AF
  8
DEFPOINTS
 62
     0
 10
662.8664405795942
 20
687.8289680179025
 30
0.0
  0
ENDBLK
  5
189B
  8
0
  0
BLOCK
  8
0
  2
*D31
 70
     1
 10
0.0
 20
0.0
 30
0.0
  3
*D31
  1

  0
POINT
  5
8BA
  8
DEFPOINTS
 62
     0
 10
662.8664405795948
 20
784.6282243225822
 30
0.0
  0
POINT
  5
8BB
  8
DEFPOINTS
 62
     0
 10
740.9025693860466
 20
1176.942336483876
 30
0.0
  0
POINT
  5
8BC
  8
DEFPOINTS
 62
     0
 10
861.4597244788743
 20
1152.962027359805
 30
0.0
  0
ENDBLK
  5
189D
  8
0
  0
BLOCK
  8
0
  2
*D32
 70
     1
 10
0.0
 20
0.0
 30
0.0
  3
*D32
  1

  0
POINT
  5
8C7
  8
DEFPOINTS
 62
     0
 10
350.7219253537905
 20
784.6282243225844
 30
0.0
  0
POINT
  5
8C8
  8
DEFPOINTS
 62
     0
 10
272.6857965473393
 20
1176.942336483876
 30
0.0
  0
POINT
  5
8C9
  8
DEFPOINTS
 62
     0
 10
223.7908869136665
 20
1167.216534255828
 30
0.0
  0
ENDBLK
  5
189F
  8
0
  0
BLOCK
  8
0
  2
*D33
 70
     1
 10
0.0
 20
0.0
 30
0.0
  3
*D33
  1

  0
POINT
  5
8D4
  8
DEFPOINTS
 62
     0
 10
350.7219253537905
 20
784.0032243225844
 30
0.0
  0
POINT
  5
8D5
  8
DEFPOINTS
 62
     0
 10
253.3970914833465
 20
1273.913205204054
 30
0.0
  0
POINT
  5
8D6
  8
DEFPOINTS
 62
     0
 10
150.469703645497
 20
1253.465793816326
 30
0.0
  0
ENDBLK
  5
18A1
  8
0
  0
BLOCK
  8
0
  2
*D34
 70
     1
 10
0.0
 20
0.0
 30
0.0
  3
*D34
  1

  0
POINT
  5
8DF
  8
DEFPOINTS
 62
     0
 10
365.2916155129456
 20
858.5087312375236
 30
0.0
  0
POINT
  5
8E0
  8
DEFPOINTS
 62
     0
 10
350.7219253537905
 20
784.6282243225844
 30
0.0
  0
POINT
  5
8E1
  8
DEFPOINTS
 62
     0
 10
662.8664405796062
 20
784.6282243225821
 30
0.0
  0
POINT
  5
8E2
  8
DEFPOINTS
 62
     0
 10
350.7219253537905
 20
784.6282243225844
 30
0.0
  0
POINT
  5
8E3
  8
DEFPOINTS
 62
     0
 10
272.6857965473393
 20
1176.942336483876
 30
0.0
  0
ENDBLK
  5
18A3
  8
0
  0
BLOCK
  8
0
  2
*D35
 70
     1
 10
0.0
 20
0.0
 30
0.0
  3
*D35
  1

  0
POINT
  5
8EC
  8
DEFPOINTS
 62
     0
 10
594.6349452222438
 20
815.5068569170302
 30
0.0
  0
POINT
  5
8ED
  8
DEFPOINTS
 62
     0
 10
662.8664405796062
 20
784.6282243225821
 30
0.0
  0
POINT
  5
8EE
  8
DEFPOINTS
 62
     0
 10
662.8664405795948
 20
784.6282243225822
 30
0.0
  0
POINT
  5
8EF
  8
DEFPOINTS
 62
     0
 10
740.9025693860466
 20
1176.942336483876
 30
0.0
  0
POINT
  5
8F0
  8
DEFPOINTS
 62
     0
 10
350.7219253537905
 20
784.6282243225844
 30
0.0
  0
ENDBLK
  5
18A5
  8
0
  0
BLOCK
  8
0
  2
*D36
 70
     1
 10
0.0
 20
0.0
 30
0.0
  3
*D36
  1

  0
POINT
  5
8F9
  8
DEFPOINTS
 62
     0
 10
410.3411981344149
 20
1034.611645121449
 30
0.0
  0
POINT
  5
8FA
  8
DEFPOINTS
 62
     0
 10
350.7219253537905
 20
784.6282243225844
 30
0.0
  0
POINT
  5
8FB
  8
DEFPOINTS
 62
     0
 10
662.8664405795948
 20
784.6282243225822
 30
0.0
  0
POINT
  5
8FC
  8
DEFPOINTS
 62
     0
 10
740.9025693860466
 20
1176.942336483876
 30
0.0
  0
POINT
  5
8FD
  8
DEFPOINTS
 62
     0
 10
272.6857965473393
 20
1176.942336483876
 30
0.0
  0
ENDBLK
  5
18A7
  8
0
  0
BLOCK
  8
0
  2
*D37
 70
     1
 10
0.0
 20
0.0
 30
0.0
  3
*D37
  1

  0
POINT
  5
908
  8
DEFPOINTS
 62
     0
 10
741.5155601862986
 20
1176.820405032616
 30
0.0
  0
POINT
  5
909
  8
DEFPOINTS
 62
     0
 10
252.7840709360627
 20
1273.791423396678
 30
0.0
  0
POINT
  5
90A
  8
DEFPOINTS
 62
     0
 10
261.1181666146325
 20
1315.79505562883
 30
0.0
  0
ENDBLK
  5
18A9
  8
0
  0
BLOCK
  8
0
  2
*D38
 70
     1
 10
0.0
 20
0.0
 30
0.0
  3
*D38
  1

  0
POINT
  5
12A4
  8
DEFPOINTS
  6
BYBLOCK
 62
     0
 10
156.0722576129025
 20
784.6282243225844
 30
0.0
  0
POINT
  5
12A5
  8
DEFPOINTS
  6
BYBLOCK
 62
     0
 10
691.8290629240282
 20
784.6282243225845
 30
0.0
  0
LINE
  5
12A6
  8
0
  6
BYBLOCK
 62
     0
 10
156.0722576129025
 20
784.5657243225844
 30
0.0
 11
156.0722576129025
 21
713.7358894143354
 31
0.0
  0
LINE
  5
12A7
  8
0
  6
BYBLOCK
 62
     0
 10
691.8290629240282
 20
784.5657243225845
 30
0.0
 11
691.8290629240282
 21
713.7358894143354
 31
0.0
  0
LINE
  5
12A8
  8
0
  6
BYBLOCK
 62
     0
 10
156.2522576129026
 20
713.9158894143354
 30
0.0
 11
353.8606602684654
 21
713.9158894143354
 31
0.0
  0
LINE
  5
12A9
  8
0
  6
BYBLOCK
 62
     0
 10
691.6490629240282
 20
713.9158894143354
 30
0.0
 11
494.0406602684654
 21
713.9158894143354
 31
0.0
  0
SOLID
  5
12AA
  8
0
  6
BYBLOCK
 62
     0
 10
156.0722576129025
 20
713.9158894143354
 30
0.0
 11
156.2522576129026
 21
713.8858894143355
 31
0.0
 12
156.2522576129026
 22
713.9458894143354
 32
0.0
 13
156.2522576129026
 23
713.9458894143354
 33
0.0
  0
SOLID
  5
12AB
  8
0
  6
BYBLOCK
 62
     0
 10
691.8290629240282
 20
713.9158894143354
 30
0.0
 11
691.6490629240282
 21
713.8858894143355
 31
0.0
 12
691.6490629240282
 22
713.9458894143354
 32
0.0
 13
691.6490629240282
 23
713.9458894143354
 33
0.0
  0
TEXT
  5
12AC
  8
0
  6
BYBLOCK
 62
     0
 10
353.9506602684654
 20
703.9158894143354
 30
0.0
 40
20.0
  1
535.7568
  0
ENDBLK
  5
18AB
  8
0
  0
BLOCK
  8
0
  2
*D39
 70
     1
 10
0.0
 20
0.0
 30
0.0
  3
*D39
  1

  0
POINT
  5
12B0
  8
DEFPOINTS
  6
BYBLOCK
 62
     0
 10
691.8290629240282
 20
784.6282243225845
 30
0.0
  0
POINT
  5
12B1
  8
DEFPOINTS
  6
BYBLOCK
 62
     0
 10
768.3657493970461
 20
969.4041308248419
 30
0.0
  0
LINE
  5
12B2
  8
0
  6
BYBLOCK
 62
     0
 10
691.8868053948102
 20
784.6043066080617
 30
0.0
 11
761.6509721707451
 21
755.707042561811
 31
0.0
  0
LINE
  5
12B3
  8
0
  6
BYBLOCK
 62
     0
 10
768.423491867828
 20
969.3802131103191
 30
0.0
 11
838.187658643763
 21
940.4829490640684
 31
0.0
  0
LINE
  5
12B4
  8
0
  6
BYBLOCK
 62
     0
 10
761.5535568727189
 20
755.9422238954887
 30
0.0
 11
795.5736022470576
 21
838.0738788307654
 31
0.0
  0
LINE
  5
12B5
  8
0
  6
BYBLOCK
 62
     0
 10
837.9524773100853
 20
940.385533766042
 30
0.0
 11
803.9324319357465
 21
858.2538788307654
 31
0.0
  0
SOLID
  5
12B6
  8
0
  6
BYBLOCK
 62
     0
 10
761.4846738548931
 20
755.7759255796367
 30
0.0
 11
761.5812732586942
 21
755.9307433925178
 31
0.0
 12
761.5258404867435
 22
755.9537043984596
 32
0.0
 13
761.5258404867435
 23
755.9537043984596
 33
0.0
  0
SOLID
  5
12B7
  8
0
  6
BYBLOCK
 62
     0
 10
838.021360327911
 20
940.5518320818941
 30
0.0
 11
837.9801936960606
 21
940.3740532630711
 31
0.0
 12
837.9247609241099
 22
940.397014269013
 32
0.0
 13
837.9247609241099
 23
940.397014269013
 33
0.0
  0
TEXT
  5
12B8
  8
0
  6
BYBLOCK
 62
     0
 10
786.1073431610826
 20
789.0890484629396
 30
0.0
 40
20.0
  1
200.0000
 50
67.5
  0
ENDBLK
  5
18AD
  8
0
  0
BLOCK
  8
0
  2
*D40
 70
     1
 10
0.0
 20
0.0
 30
0.0
  3
*D40
  1

  0
POINT
  5
12BC
  8
DEFPOINTS
  6
BYBLOCK
 62
     0
 10
156.0722576129025
 20
784.6282243225844
 30
0.0
  0
POINT
  5
12BD
  8
DEFPOINTS
  6
BYBLOCK
 62
     0
 10
79.53557113987256
 20
969.4041308248369
 30
0.0
  0
LINE
  5
12BE
  8
0
  6
BYBLOCK
 62
     0
 10
156.0145151421206
 20
784.6043066080616
 30
0.0
 11
103.6058867793128
 21
762.8959419548114
 31
0.0
  0
LINE
  5
12BF
  8
0
  6
BYBLOCK
 62
     0
 10
79.47782866909061
 20
969.3802131103141
 30
0.0
 11
27.06920030628283
 21
947.6718484570638
 31
0.0
  0
LINE
  5
12C0
  8
0
  6
BYBLOCK
 62
     0
 10
103.7033020773391
 20
763.1311232884891
 30
0.0
 11
69.68325670299515
 21
845.2627782237633
 31
0.0
  0
LINE
  5
12C1
  8
0
  6
BYBLOCK
 62
     0
 10
27.30438163996059
 20
947.5744331590375
 30
0.0
 11
61.32442701430456
 21
865.4427782237633
 31
0.0
  0
SOLID
  5
12C2
  8
0
  6
BYBLOCK
 62
     0
 10
103.7721850951649
 20
762.9648249726371
 30
0.0
 11
103.7310184633145
 21
763.14260379146
 31
0.0
 12
103.6755856913638
 22
763.1196427855182
 32
0.0
 13
103.6755856913638
 23
763.1196427855182
 33
0.0
  0
SOLID
  5
12C3
  8
0
  6
BYBLOCK
 62
     0
 10
27.23549862213486
 20
947.7407314748896
 30
0.0
 11
27.33209802593593
 21
947.5859136620085
 31
0.0
 12
27.27666525398524
 22
947.5629526560666
 32
0.0
 13
27.27666525398524
 23
947.5629526560666
 33
0.0
  0
TEXT
  5
12C4
  8
0
  6
BYBLOCK
 62
     0
 10
33.38057727810121
 20
906.7739399442853
 30
0.0
 40
20.0
  1
200.0000
 50
292.5000000000038
  0
ENDBLK
  5
18AF
  8
0
  0
BLOCK
  8
0
  2
*D41
 70
     1
 10
0.0
 20
0.0
 30
0.0
  3
*D41
  1

  0
TEXT
  5
12C8
  8
0
  6
BYBLOCK
 62
     0
 10
380.7506602684654
 20
1081.565586216694
 30
0.0
 40
20.0
  1
45.00°
  0
POINT
  5
12C9
  8
DEFPOINTS
  6
BYBLOCK
 62
     0
 10
-111.8061450426603
 20
1431.343897080485
 30
0.0
  0
POINT
  5
12CA
  8
DEFPOINTS
  6
BYBLOCK
 62
     0
 10
691.8290629240282
 20
784.6282243225845
 30
0.0
  0
POINT
  5
12CB
  8
DEFPOINTS
  6
BYBLOCK
 62
     0
 10
959.707465579591
 20
1431.343897080485
 30
0.0
  0
POINT
  5
12CC
  8
DEFPOINTS
  6
BYBLOCK
 62
     0
 10
156.0722576129025
 20
784.6282243225844
 30
0.0
  0
SOLID
  5
12CD
  8
0
  6
BYBLOCK
 62
     0
 10
788.8978768544805
 20
1018.973071396953
 30
0.0
 11
788.7200941513917
 21
1019.014221250931
 31
0.0
 12
788.743049925822
 22
1019.069656189556
 32
0.0
 13
788.743049925822
 23
1019.069656189556
 33
0.0
  0
SOLID
  5
12CE
  8
0
  6
BYBLOCK
 62
     0
 10
59.00344368245035
 20
1018.973071396953
 30
0.0
 11
59.1582706111089
 21
1019.069656189556
 31
0.0
 12
59.18122638553914
 22
1019.014221250931
 32
0.0
 13
59.18122638553914
 23
1019.014221250931
 33
0.0
  0
ARC
  5
12CF
  8
0
  6
BYBLOCK
 62
     0
 10
423.9506602684654
 20
137.9125515646837
 30
0.0
 40
953.65303465201
 50
67.51081445762026
 51
87.39822888762107
  0
ARC
  5
12D0
  8
0
  6
BYBLOCK
 62
     0
 10
423.9506602684654
 20
137.9125515646837
 30
0.0
 40
953.65303465201
 50
92.60177111237893
 51
112.4891855423797
  0
ENDBLK
  5
18B1
  8
0
  0
BLOCK
  8
0
  2
*D42
 70
     1
 10
0.0
 20
0.0
 30
0.0
  3
*D42
  1

  0
POINT
  5
12D4
  8
DEFPOINTS
  6
BYBLOCK
 62
     0
 10
156.0722576129025
 20
784.6282243225844
 30
0.0
  0
POINT
  5
12D5
  8
DEFPOINTS
  6
BYBLOCK
 62
     0
 10
691.8290629240282
 20
784.6282243225845
 30
0.0
  0
LINE
  5
12D6
  8
0
  6
BYBLOCK
 62
     0
 10
156.0722576129025
 20
784.5657243225844
 30
0.0
 11
156.0722576129025
 21
713.7358894143354
 31
0.0
  0
LINE
  5
12D7
  8
0
  6
BYBLOCK
 62
     0
 10
691.8290629240282
 20
784.5657243225845
 30
0.0
 11
691.8290629240282
 21
713.7358894143354
 31
0.0
  0
LINE
  5
12D8
  8
0
  6
BYBLOCK
 62
     0
 10
156.2522576129026
 20
713.9158894143354
 30
0.0
 11
353.8606602684654
 21
713.9158894143354
 31
0.0
  0
LINE
  5
12D9
  8
0
  6
BYBLOCK
 62
     0
 10
691.6490629240282
 20
713.9158894143354
 30
0.0
 11
494.0406602684654
 21
713.9158894143354
 31
0.0
  0
SOLID
  5
12DA
  8
0
  6
BYBLOCK
 62
     0
 10
156.0722576129025
 20
713.9158894143354
 30
0.0
 11
156.2522576129026
 21
713.8858894143355
 31
0.0
 12
156.2522576129026
 22
713.9458894143354
 32
0.0
 13
156.2522576129026
 23
713.9458894143354
 33
0.0
  0
SOLID
  5
12DB
  8
0
  6
BYBLOCK
 62
     0
 10
691.8290629240282
 20
713.9158894143354
 30
0.0
 11
691.6490629240282
 21
713.8858894143355
 31
0.0
 12
691.6490629240282
 22
713.9458894143354
 32
0.0
 13
691.6490629240282
 23
713.9458894143354
 33
0.0
  0
TEXT
  5
12DC
  8
0
  6
BYBLOCK
 62
     0
 10
353.9506602684654
 20
703.9158894143354
 30
0.0
 40
20.0
  1
535.7568
  0
ENDBLK
  5
18B3
  8
0
  0
BLOCK
  8
0
  2
*D43
 70
     1
 10
0.0
 20
0.0
 30
0.0
  3
*D43
  1

  0
POINT
  5
12E0
  8
DEFPOINTS
  6
BYBLOCK
 62
     0
 10
691.8290629240282
 20
784.6282243225845
 30
0.0
  0
POINT
  5
12E1
  8
DEFPOINTS
  6
BYBLOCK
 62
     0
 10
768.3657493970461
 20
969.4041308248419
 30
0.0
  0
LINE
  5
12E2
  8
0
  6
BYBLOCK
 62
     0
 10
691.8868053948102
 20
784.6043066080617
 30
0.0
 11
761.6509721707451
 21
755.707042561811
 31
0.0
  0
LINE
  5
12E3
  8
0
  6
BYBLOCK
 62
     0
 10
768.423491867828
 20
969.3802131103191
 30
0.0
 11
838.187658643763
 21
940.4829490640684
 31
0.0
  0
LINE
  5
12E4
  8
0
  6
BYBLOCK
 62
     0
 10
761.5535568727189
 20
755.9422238954887
 30
0.0
 11
795.5736022470576
 21
838.0738788307654
 31
0.0
  0
LINE
  5
12E5
  8
0
  6
BYBLOCK
 62
     0
 10
837.9524773100853
 20
940.385533766042
 30
0.0
 11
803.9324319357465
 21
858.2538788307654
 31
0.0
  0
SOLID
  5
12E6
  8
0
  6
BYBLOCK
 62
     0
 10
761.4846738548931
 20
755.7759255796367
 30
0.0
 11
761.5812732586942
 21
755.9307433925178
 31
0.0
 12
761.5258404867435
 22
755.9537043984596
 32
0.0
 13
761.5258404867435
 23
755.9537043984596
 33
0.0
  0
SOLID
  5
12E7
  8
0
  6
BYBLOCK
 62
     0
 10
838.021360327911
 20
940.5518320818941
 30
0.0
 11
837.9801936960606
 21
940.3740532630711
 31
0.0
 12
837.9247609241099
 22
940.397014269013
 32
0.0
 13
837.9247609241099
 23
940.397014269013
 33
0.0
  0
TEXT
  5
12E8
  8
0
  6
BYBLOCK
 62
     0
 10
786.1073431610826
 20
789.0890484629396
 30
0.0
 40
20.0
  1
200.0000
 50
67.5
  0
ENDBLK
  5
18B5
  8
0
  0
BLOCK
  8
0
  2
*D44
 70
     1
 10
0.0
 20
0.0
 30
0.0
  3
*D44
  1

  0
POINT
  5
12EC
  8
DEFPOINTS
  6
BYBLOCK
 62
     0
 10
156.0722576129025
 20
784.6282243225844
 30
0.0
  0
POINT
  5
12ED
  8
DEFPOINTS
  6
BYBLOCK
 62
     0
 10
79.53557113987256
 20
969.4041308248369
 30
0.0
  0
LINE
  5
12EE
  8
0
  6
BYBLOCK
 62
     0
 10
156.0145151421206
 20
784.6043066080616
 30
0.0
 11
103.6058867793128
 21
762.8959419548114
 31
0.0
  0
LINE
  5
12EF
  8
0
  6
BYBLOCK
 62
     0
 10
79.47782866909061
 20
969.3802131103141
 30
0.0
 11
27.06920030628283
 21
947.6718484570638
 31
0.0
  0
LINE
  5
12F0
  8
0
  6
BYBLOCK
 62
     0
 10
103.7033020773391
 20
763.1311232884891
 30
0.0
 11
69.68325670299515
 21
845.2627782237633
 31
0.0
  0
LINE
  5
12F1
  8
0
  6
BYBLOCK
 62
     0
 10
27.30438163996059
 20
947.5744331590375
 30
0.0
 11
61.32442701430456
 21
865.4427782237633
 31
0.0
  0
SOLID
  5
12F2
  8
0
  6
BYBLOCK
 62
     0
 10
103.7721850951649
 20
762.9648249726371
 30
0.0
 11
103.7310184633145
 21
763.14260379146
 31
0.0
 12
103.6755856913638
 22
763.1196427855182
 32
0.0
 13
103.6755856913638
 23
763.1196427855182
 33
0.0
  0
SOLID
  5
12F3
  8
0
  6
BYBLOCK
 62
     0
 10
27.23549862213486
 20
947.7407314748896
 30
0.0
 11
27.33209802593593
 21
947.5859136620085
 31
0.0
 12
27.27666525398524
 22
947.5629526560666
 32
0.0
 13
27.27666525398524
 23
947.5629526560666
 33
0.0
  0
TEXT
  5
12F4
  8
0
  6
BYBLOCK
 62
     0
 10
33.38057727810121
 20
906.7739399442853
 30
0.0
 40
20.0
  1
200.0000
 50
292.5000000000038
  0
ENDBLK
  5
18B7
  8
0
  0
BLOCK
  8
0
  2
*D45
 70
     1
 10
0.0
 20
0.0
 30
0.0
  3
*D45
  1

  0
TEXT
  5
12F8
  8
0
  6
BYBLOCK
 62
     0
 10
380.7506602684654
 20
1081.565586216694
 30
0.0
 40
20.0
  1
45.00°
  0
POINT
  5
12F9
  8
DEFPOINTS
  6
BYBLOCK
 62
     0
 10
-111.8061450426603
 20
1431.343897080485
 30
0.0
  0
POINT
  5
12FA
  8
DEFPOINTS
  6
BYBLOCK
 62
     0
 10
691.8290629240282
 20
784.6282243225845
 30
0.0
  0
POINT
  5
12FB
  8
DEFPOINTS
  6
BYBLOCK
 62
     0
 10
959.707465579591
 20
1431.343897080485
 30
0.0
  0
POINT
  5
12FC
  8
DEFPOINTS
  6
BYBLOCK
 62
     0
 10
156.0722576129025
 20
784.6282243225844
 30
0.0
  0
SOLID
  5
12FD
  8
0
  6
BYBLOCK
 62
     0
 10
788.8978768544805
 20
1018.973071396953
 30
0.0
 11
788.7200941513917
 21
1019.014221250931
 31
0.0
 12
788.743049925822
 22
1019.069656189556
 32
0.0
 13
788.743049925822
 23
1019.069656189556
 33
0.0
  0
SOLID
  5
12FE
  8
0
  6
BYBLOCK
 62
     0
 10
59.00344368245035
 20
1018.973071396953
 30
0.0
 11
59.1582706111089
 21
1019.069656189556
 31
0.0
 12
59.18122638553914
 22
1019.014221250931
 32
0.0
 13
59.18122638553914
 23
1019.014221250931
 33
0.0
  0
ARC
  5
12FF
  8
0
  6
BYBLOCK
 62
     0
 10
423.9506602684654
 20
137.9125515646837
 30
0.0
 40
953.65303465201
 50
67.51081445762026
 51
87.39822888762107
  0
ARC
  5
1300
  8
0
  6
BYBLOCK
 62
     0
 10
423.9506602684654
 20
137.9125515646837
 30
0.0
 40
953.65303465201
 50
92.60177111237893
 51
112.4891855423797
  0
ENDBLK
  5
18B9
  8
0
  0
BLOCK
  8
0
  2
*D46
 70
     1
 10
0.0
 20
0.0
 30
0.0
  3
*D46
  1

  0
POINT
  5
1304
  8
DEFPOINTS
  6
BYBLOCK
 62
     0
 10
156.0722576129025
 20
784.6282243225844
 30
0.0
  0
POINT
  5
1305
  8
DEFPOINTS
  6
BYBLOCK
 62
     0
 10
691.8290629240282
 20
784.6282243225845
 30
0.0
  0
LINE
  5
1306
  8
0
  6
BYBLOCK
 62
     0
 10
156.0722576129025
 20
784.5657243225844
 30
0.0
 11
156.0722576129025
 21
713.7358894143354
 31
0.0
  0
LINE
  5
1307
  8
0
  6
BYBLOCK
 62
     0
 10
691.8290629240282
 20
784.5657243225845
 30
0.0
 11
691.8290629240282
 21
713.7358894143354
 31
0.0
  0
LINE
  5
1308
  8
0
  6
BYBLOCK
 62
     0
 10
156.2522576129026
 20
713.9158894143354
 30
0.0
 11
353.8606602684654
 21
713.9158894143354
 31
0.0
  0
LINE
  5
1309
  8
0
  6
BYBLOCK
 62
     0
 10
691.6490629240282
 20
713.9158894143354
 30
0.0
 11
494.0406602684654
 21
713.9158894143354
 31
0.0
  0
SOLID
  5
130A
  8
0
  6
BYBLOCK
 62
     0
 10
156.0722576129025
 20
713.9158894143354
 30
0.0
 11
156.2522576129026
 21
713.8858894143355
 31
0.0
 12
156.2522576129026
 22
713.9458894143354
 32
0.0
 13
156.2522576129026
 23
713.9458894143354
 33
0.0
  0
SOLID
  5
130B
  8
0
  6
BYBLOCK
 62
     0
 10
691.8290629240282
 20
713.9158894143354
 30
0.0
 11
691.6490629240282
 21
713.8858894143355
 31
0.0
 12
691.6490629240282
 22
713.9458894143354
 32
0.0
 13
691.6490629240282
 23
713.9458894143354
 33
0.0
  0
TEXT
  5
130C
  8
0
  6
BYBLOCK
 62
     0
 10
353.9506602684654
 20
703.9158894143354
 30
0.0
 40
20.0
  1
535.7568
  0
ENDBLK
  5
18BB
  8
0
  0
BLOCK
  8
0
  2
*D47
 70
     1
 10
0.0
 20
0.0
 30
0.0
  3
*D47
  1

  0
POINT
  5
1310
  8
DEFPOINTS
  6
BYBLOCK
 62
     0
 10
691.8290629240282
 20
784.6282243225845
 30
0.0
  0
POINT
  5
1311
  8
DEFPOINTS
  6
BYBLOCK
 62
     0
 10
768.3657493970461
 20
969.4041308248419
 30
0.0
  0
LINE
  5
1312
  8
0
  6
BYBLOCK
 62
     0
 10
691.8868053948102
 20
784.6043066080617
 30
0.0
 11
761.6509721707451
 21
755.707042561811
 31
0.0
  0
LINE
  5
1313
  8
0
  6
BYBLOCK
 62
     0
 10
768.423491867828
 20
969.3802131103191
 30
0.0
 11
838.187658643763
 21
940.4829490640684
 31
0.0
  0
LINE
  5
1314
  8
0
  6
BYBLOCK
 62
     0
 10
761.5535568727189
 20
755.9422238954887
 30
0.0
 11
795.5736022470576
 21
838.0738788307654
 31
0.0
  0
LINE
  5
1315
  8
0
  6
BYBLOCK
 62
     0
 10
837.9524773100853
 20
940.385533766042
 30
0.0
 11
803.9324319357465
 21
858.2538788307654
 31
0.0
  0
SOLID
  5
1316
  8
0
  6
BYBLOCK
 62
     0
 10
761.4846738548931
 20
755.7759255796367
 30
0.0
 11
761.5812732586942
 21
755.9307433925178
 31
0.0
 12
761.5258404867435
 22
755.9537043984596
 32
0.0
 13
761.5258404867435
 23
755.9537043984596
 33
0.0
  0
SOLID
  5
1317
  8
0
  6
BYBLOCK
 62
     0
 10
838.021360327911
 20
940.5518320818941
 30
0.0
 11
837.9801936960606
 21
940.3740532630711
 31
0.0
 12
837.9247609241099
 22
940.397014269013
 32
0.0
 13
837.9247609241099
 23
940.397014269013
 33
0.0
  0
TEXT
  5
1318
  8
0
  6
BYBLOCK
 62
     0
 10
786.1073431610826
 20
789.0890484629396
 30
0.0
 40
20.0
  1
200.0000
 50
67.5
  0
ENDBLK
  5
18BD
  8
0
  0
BLOCK
  8
0
  2
*D48
 70
     1
 10
0.0
 20
0.0
 30
0.0
  3
*D48
  1

  0
POINT
  5
131C
  8
DEFPOINTS
  6
BYBLOCK
 62
     0
 10
156.0722576129025
 20
784.6282243225844
 30
0.0
  0
POINT
  5
131D
  8
DEFPOINTS
  6
BYBLOCK
 62
     0
 10
79.53557113987256
 20
969.4041308248369
 30
0.0
  0
LINE
  5
131E
  8
0
  6
BYBLOCK
 62
     0
 10
156.0145151421206
 20
784.6043066080616
 30
0.0
 11
103.6058867793128
 21
762.8959419548114
 31
0.0
  0
LINE
  5
131F
  8
0
  6
BYBLOCK
 62
     0
 10
79.47782866909061
 20
969.3802131103141
 30
0.0
 11
27.06920030628283
 21
947.6718484570638
 31
0.0
  0
LINE
  5
1320
  8
0
  6
BYBLOCK
 62
     0
 10
103.7033020773391
 20
763.1311232884891
 30
0.0
 11
69.68325670299515
 21
845.2627782237633
 31
0.0
  0
LINE
  5
1321
  8
0
  6
BYBLOCK
 62
     0
 10
27.30438163996059
 20
947.5744331590375
 30
0.0
 11
61.32442701430456
 21
865.4427782237633
 31
0.0
  0
SOLID
  5
1322
  8
0
  6
BYBLOCK
 62
     0
 10
103.7721850951649
 20
762.9648249726371
 30
0.0
 11
103.7310184633145
 21
763.14260379146
 31
0.0
 12
103.6755856913638
 22
763.1196427855182
 32
0.0
 13
103.6755856913638
 23
763.1196427855182
 33
0.0
  0
SOLID
  5
1323
  8
0
  6
BYBLOCK
 62
     0
 10
27.23549862213486
 20
947.7407314748896
 30
0.0
 11
27.33209802593593
 21
947.5859136620085
 31
0.0
 12
27.27666525398524
 22
947.5629526560666
 32
0.0
 13
27.27666525398524
 23
947.5629526560666
 33
0.0
  0
TEXT
  5
1324
  8
0
  6
BYBLOCK
 62
     0
 10
33.38057727810121
 20
906.7739399442853
 30
0.0
 40
20.0
  1
200.0000
 50
292.5000000000038
  0
ENDBLK
  5
18BF
  8
0
  0
BLOCK
  8
0
  2
*D49
 70
     1
 10
0.0
 20
0.0
 30
0.0
  3
*D49
  1

  0
TEXT
  5
1328
  8
0
  6
BYBLOCK
 62
     0
 10
380.7506602684654
 20
1081.565586216694
 30
0.0
 40
20.0
  1
45.00°
  0
POINT
  5
1329
  8
DEFPOINTS
  6
BYBLOCK
 62
     0
 10
-111.8061450426603
 20
1431.343897080485
 30
0.0
  0
POINT
  5
132A
  8
DEFPOINTS
  6
BYBLOCK
 62
     0
 10
691.8290629240282
 20
784.6282243225845
 30
0.0
  0
POINT
  5
132B
  8
DEFPOINTS
  6
BYBLOCK
 62
     0
 10
959.707465579591
 20
1431.343897080485
 30
0.0
  0
POINT
  5
132C
  8
DEFPOINTS
  6
BYBLOCK
 62
     0
 10
156.0722576129025
 20
784.6282243225844
 30
0.0
  0
SOLID
  5
132D
  8
0
  6
BYBLOCK
 62
     0
 10
788.8978768544805
 20
1018.973071396953
 30
0.0
 11
788.7200941513917
 21
1019.014221250931
 31
0.0
 12
788.743049925822
 22
1019.069656189556
 32
0.0
 13
788.743049925822
 23
1019.069656189556
 33
0.0
  0
SOLID
  5
132E
  8
0
  6
BYBLOCK
 62
     0
 10
59.00344368245035
 20
1018.973071396953
 30
0.0
 11
59.1582706111089
 21
1019.069656189556
 31
0.0
 12
59.18122638553914
 22
1019.014221250931
 32
0.0
 13
59.18122638553914
 23
1019.014221250931
 33
0.0
  0
ARC
  5
132F
  8
0
  6
BYBLOCK
 62
     0
 10
423.9506602684654
 20
137.9125515646837
 30
0.0
 40
953.65303465201
 50
67.51081445762026
 51
87.39822888762107
  0
ARC
  5
1330
  8
0
  6
BYBLOCK
 62
     0
 10
423.9506602684654
 20
137.9125515646837
 30
0.0
 40
953.65303465201
 50
92.60177111237893
 51
112.4891855423797
  0
ENDBLK
  5
18C1
  8
0
  0
BLOCK
  8
0
  2
*D50
 70
     1
 10
0.0
 20
0.0
 30
0.0
  3
*D50
  1

  0
POINT
  5
1334
  8
DEFPOINTS
  6
BYBLOCK
 62
     0
 10
156.0722576129025
 20
784.6282243225844
 30
0.0
  0
POINT
  5
1335
  8
DEFPOINTS
  6
BYBLOCK
 62
     0
 10
691.8290629240282
 20
784.6282243225845
 30
0.0
  0
LINE
  5
1336
  8
0
  6
BYBLOCK
 62
     0
 10
156.0722576129025
 20
784.5657243225844
 30
0.0
 11
156.0722576129025
 21
713.7358894143354
 31
0.0
  0
LINE
  5
1337
  8
0
  6
BYBLOCK
 62
     0
 10
691.8290629240282
 20
784.5657243225845
 30
0.0
 11
691.8290629240282
 21
713.7358894143354
 31
0.0
  0
LINE
  5
1338
  8
0
  6
BYBLOCK
 62
     0
 10
156.2522576129026
 20
713.9158894143354
 30
0.0
 11
353.8606602684654
 21
713.9158894143354
 31
0.0
  0
LINE
  5
1339
  8
0
  6
BYBLOCK
 62
     0
 10
691.6490629240282
 20
713.9158894143354
 30
0.0
 11
494.0406602684654
 21
713.9158894143354
 31
0.0
  0
SOLID
  5
133A
  8
0
  6
BYBLOCK
 62
     0
 10
156.0722576129025
 20
713.9158894143354
 30
0.0
 11
156.2522576129026
 21
713.8858894143355
 31
0.0
 12
156.2522576129026
 22
713.9458894143354
 32
0.0
 13
156.2522576129026
 23
713.9458894143354
 33
0.0
  0
SOLID
  5
133B
  8
0
  6
BYBLOCK
 62
     0
 10
691.8290629240282
 20
713.9158894143354
 30
0.0
 11
691.6490629240282
 21
713.8858894143355
 31
0.0
 12
691.6490629240282
 22
713.9458894143354
 32
0.0
 13
691.6490629240282
 23
713.9458894143354
 33
0.0
  0
TEXT
  5
133C
  8
0
  6
BYBLOCK
 62
     0
 10
353.9506602684654
 20
703.9158894143354
 30
0.0
 40
20.0
  1
535.7568
  0
ENDBLK
  5
18C3
  8
0
  0
BLOCK
  8
0
  2
*D51
 70
     1
 10
0.0
 20
0.0
 30
0.0
  3
*D51
  1

  0
POINT
  5
1340
  8
DEFPOINTS
  6
BYBLOCK
 62
     0
 10
691.8290629240282
 20
784.6282243225845
 30
0.0
  0
POINT
  5
1341
  8
DEFPOINTS
  6
BYBLOCK
 62
     0
 10
768.3657493970461
 20
969.4041308248419
 30
0.0
  0
LINE
  5
1342
  8
0
  6
BYBLOCK
 62
     0
 10
691.8868053948102
 20
784.6043066080617
 30
0.0
 11
761.6509721707451
 21
755.707042561811
 31
0.0
  0
LINE
  5
1343
  8
0
  6
BYBLOCK
 62
     0
 10
768.423491867828
 20
969.3802131103191
 30
0.0
 11
838.187658643763
 21
940.4829490640684
 31
0.0
  0
LINE
  5
1344
  8
0
  6
BYBLOCK
 62
     0
 10
761.5535568727189
 20
755.9422238954887
 30
0.0
 11
795.5736022470576
 21
838.0738788307654
 31
0.0
  0
LINE
  5
1345
  8
0
  6
BYBLOCK
 62
     0
 10
837.9524773100853
 20
940.385533766042
 30
0.0
 11
803.9324319357465
 21
858.2538788307654
 31
0.0
  0
SOLID
  5
1346
  8
0
  6
BYBLOCK
 62
     0
 10
761.4846738548931
 20
755.7759255796367
 30
0.0
 11
761.5812732586942
 21
755.9307433925178
 31
0.0
 12
761.5258404867435
 22
755.9537043984596
 32
0.0
 13
761.5258404867435
 23
755.9537043984596
 33
0.0
  0
SOLID
  5
1347
  8
0
  6
BYBLOCK
 62
     0
 10
838.021360327911
 20
940.5518320818941
 30
0.0
 11
837.9801936960606
 21
940.3740532630711
 31
0.0
 12
837.9247609241099
 22
940.397014269013
 32
0.0
 13
837.9247609241099
 23
940.397014269013
 33
0.0
  0
TEXT
  5
1348
  8
0
  6
BYBLOCK
 62
     0
 10
786.1073431610826
 20
789.0890484629396
 30
0.0
 40
20.0
  1
200.0000
 50
67.5
  0
ENDBLK
  5
18C5
  8
0
  0
BLOCK
  8
0
  2
*D52
 70
     1
 10
0.0
 20
0.0
 30
0.0
  3
*D52
  1

  0
POINT
  5
134C
  8
DEFPOINTS
  6
BYBLOCK
 62
     0
 10
156.0722576129025
 20
784.6282243225844
 30
0.0
  0
POINT
  5
134D
  8
DEFPOINTS
  6
BYBLOCK
 62
     0
 10
79.53557113987256
 20
969.4041308248369
 30
0.0
  0
LINE
  5
134E
  8
0
  6
BYBLOCK
 62
     0
 10
156.0145151421206
 20
784.6043066080616
 30
0.0
 11
103.6058867793128
 21
762.8959419548114
 31
0.0
  0
LINE
  5
134F
  8
0
  6
BYBLOCK
 62
     0
 10
79.47782866909061
 20
969.3802131103141
 30
0.0
 11
27.06920030628283
 21
947.6718484570638
 31
0.0
  0
LINE
  5
1350
  8
0
  6
BYBLOCK
 62
     0
 10
103.7033020773391
 20
763.1311232884891
 30
0.0
 11
69.68325670299515
 21
845.2627782237633
 31
0.0
  0
LINE
  5
1351
  8
0
  6
BYBLOCK
 62
     0
 10
27.30438163996059
 20
947.5744331590375
 30
0.0
 11
61.32442701430456
 21
865.4427782237633
 31
0.0
  0
SOLID
  5
1352
  8
0
  6
BYBLOCK
 62
     0
 10
103.7721850951649
 20
762.9648249726371
 30
0.0
 11
103.7310184633145
 21
763.14260379146
 31
0.0
 12
103.6755856913638
 22
763.1196427855182
 32
0.0
 13
103.6755856913638
 23
763.1196427855182
 33
0.0
  0
SOLID
  5
1353
  8
0
  6
BYBLOCK
 62
     0
 10
27.23549862213486
 20
947.7407314748896
 30
0.0
 11
27.33209802593593
 21
947.5859136620085
 31
0.0
 12
27.27666525398524
 22
947.5629526560666
 32
0.0
 13
27.27666525398524
 23
947.5629526560666
 33
0.0
  0
TEXT
  5
1354
  8
0
  6
BYBLOCK
 62
     0
 10
33.38057727810121
 20
906.7739399442853
 30
0.0
 40
20.0
  1
200.0000
 50
292.5000000000038
  0
ENDBLK
  5
18C7
  8
0
  0
BLOCK
  8
0
  2
*D53
 70
     1
 10
0.0
 20
0.0
 30
0.0
  3
*D53
  1

  0
TEXT
  5
1358
  8
0
  6
BYBLOCK
 62
     0
 10
380.7506602684654
 20
1081.565586216694
 30
0.0
 40
20.0
  1
45.00°
  0
POINT
  5
1359
  8
DEFPOINTS
  6
BYBLOCK
 62
     0
 10
-111.8061450426603
 20
1431.343897080485
 30
0.0
  0
POINT
  5
135A
  8
DEFPOINTS
  6
BYBLOCK
 62
     0
 10
691.8290629240282
 20
784.6282243225845
 30
0.0
  0
POINT
  5
135B
  8
DEFPOINTS
  6
BYBLOCK
 62
     0
 10
959.707465579591
 20
1431.343897080485
 30
0.0
  0
POINT
  5
135C
  8
DEFPOINTS
  6
BYBLOCK
 62
     0
 10
156.0722576129025
 20
784.6282243225844
 30
0.0
  0
SOLID
  5
135D
  8
0
  6
BYBLOCK
 62
     0
 10
788.8978768544805
 20
1018.973071396953
 30
0.0
 11
788.7200941513917
 21
1019.014221250931
 31
0.0
 12
788.743049925822
 22
1019.069656189556
 32
0.0
 13
788.743049925822
 23
1019.069656189556
 33
0.0
  0
SOLID
  5
135E
  8
0
  6
BYBLOCK
 62
     0
 10
59.00344368245035
 20
1018.973071396953
 30
0.0
 11
59.1582706111089
 21
1019.069656189556
 31
0.0
 12
59.18122638553914
 22
1019.014221250931
 32
0.0
 13
59.18122638553914
 23
1019.014221250931
 33
0.0
  0
ARC
  5
135F
  8
0
  6
BYBLOCK
 62
     0
 10
423.9506602684654
 20
137.9125515646837
 30
0.0
 40
953.65303465201
 50
67.51081445762026
 51
87.39822888762107
  0
ARC
  5
1360
  8
0
  6
BYBLOCK
 62
     0
 10
423.9506602684654
 20
137.9125515646837
 30
0.0
 40
953.65303465201
 50
92.60177111237893
 51
112.4891855423797
  0
ENDBLK
  5
18C9
  8
0
  0
BLOCK
  8
0
  2
*D54
 70
     1
 10
0.0
 20
0.0
 30
0.0
  3
*D54
  1

  0
POINT
  5
1364
  8
DEFPOINTS
  6
BYBLOCK
 62
     0
 10
156.0722576129025
 20
784.6282243225844
 30
0.0
  0
POINT
  5
1365
  8
DEFPOINTS
  6
BYBLOCK
 62
     0
 10
691.8290629240282
 20
784.6282243225845
 30
0.0
  0
LINE
  5
1366
  8
0
  6
BYBLOCK
 62
     0
 10
156.0722576129025
 20
784.5657243225844
 30
0.0
 11
156.0722576129025
 21
713.7358894143354
 31
0.0
  0
LINE
  5
1367
  8
0
  6
BYBLOCK
 62
     0
 10
691.8290629240282
 20
784.5657243225845
 30
0.0
 11
691.8290629240282
 21
713.7358894143354
 31
0.0
  0
LINE
  5
1368
  8
0
  6
BYBLOCK
 62
     0
 10
156.2522576129026
 20
713.9158894143354
 30
0.0
 11
353.8606602684654
 21
713.9158894143354
 31
0.0
  0
LINE
  5
1369
  8
0
  6
BYBLOCK
 62
     0
 10
691.6490629240282
 20
713.9158894143354
 30
0.0
 11
494.0406602684654
 21
713.9158894143354
 31
0.0
  0
SOLID
  5
136A
  8
0
  6
BYBLOCK
 62
     0
 10
156.0722576129025
 20
713.9158894143354
 30
0.0
 11
156.2522576129026
 21
713.8858894143355
 31
0.0
 12
156.2522576129026
 22
713.9458894143354
 32
0.0
 13
156.2522576129026
 23
713.9458894143354
 33
0.0
  0
SOLID
  5
136B
  8
0
  6
BYBLOCK
 62
     0
 10
691.8290629240282
 20
713.9158894143354
 30
0.0
 11
691.6490629240282
 21
713.8858894143355
 31
0.0
 12
691.6490629240282
 22
713.9458894143354
 32
0.0
 13
691.6490629240282
 23
713.9458894143354
 33
0.0
  0
TEXT
  5
136C
  8
0
  6
BYBLOCK
 62
     0
 10
353.9506602684654
 20
703.9158894143354
 30
0.0
 40
20.0
  1
535.7568
  0
ENDBLK
  5
18CB
  8
0
  0
BLOCK
  8
0
  2
*D55
 70
     1
 10
0.0
 20
0.0
 30
0.0
  3
*D55
  1

  0
POINT
  5
1370
  8
DEFPOINTS
  6
BYBLOCK
 62
     0
 10
691.8290629240282
 20
784.6282243225845
 30
0.0
  0
POINT
  5
1371
  8
DEFPOINTS
  6
BYBLOCK
 62
     0
 10
768.3657493970461
 20
969.4041308248419
 30
0.0
  0
LINE
  5
1372
  8
0
  6
BYBLOCK
 62
     0
 10
691.8868053948102
 20
784.6043066080617
 30
0.0
 11
761.6509721707451
 21
755.707042561811
 31
0.0
  0
LINE
  5
1373
  8
0
  6
BYBLOCK
 62
     0
 10
768.423491867828
 20
969.3802131103191
 30
0.0
 11
838.187658643763
 21
940.4829490640684
 31
0.0
  0
LINE
  5
1374
  8
0
  6
BYBLOCK
 62
     0
 10
761.5535568727189
 20
755.9422238954887
 30
0.0
 11
795.5736022470576
 21
838.0738788307654
 31
0.0
  0
LINE
  5
1375
  8
0
  6
BYBLOCK
 62
     0
 10
837.9524773100853
 20
940.385533766042
 30
0.0
 11
803.9324319357465
 21
858.2538788307654
 31
0.0
  0
SOLID
  5
1376
  8
0
  6
BYBLOCK
 62
     0
 10
761.4846738548931
 20
755.7759255796367
 30
0.0
 11
761.5812732586942
 21
755.9307433925178
 31
0.0
 12
761.5258404867435
 22
755.9537043984596
 32
0.0
 13
761.5258404867435
 23
755.9537043984596
 33
0.0
  0
SOLID
  5
1377
  8
0
  6
BYBLOCK
 62
     0
 10
838.021360327911
 20
940.5518320818941
 30
0.0
 11
837.9801936960606
 21
940.3740532630711
 31
0.0
 12
837.9247609241099
 22
940.397014269013
 32
0.0
 13
837.9247609241099
 23
940.397014269013
 33
0.0
  0
TEXT
  5
1378
  8
0
  6
BYBLOCK
 62
     0
 10
786.1073431610826
 20
789.0890484629396
 30
0.0
 40
20.0
  1
200.0000
 50
67.5
  0
ENDBLK
  5
18CD
  8
0
  0
BLOCK
  8
0
  2
*D56
 70
     1
 10
0.0
 20
0.0
 30
0.0
  3
*D56
  1

  0
POINT
  5
137C
  8
DEFPOINTS
  6
BYBLOCK
 62
     0
 10
156.0722576129025
 20
784.6282243225844
 30
0.0
  0
POINT
  5
137D
  8
DEFPOINTS
  6
BYBLOCK
 62
     0
 10
79.53557113987256
 20
969.4041308248369
 30
0.0
  0
LINE
  5
137E
  8
0
  6
BYBLOCK
 62
     0
 10
156.0145151421206
 20
784.6043066080616
 30
0.0
 11
103.6058867793128
 21
762.8959419548114
 31
0.0
  0
LINE
  5
137F
  8
0
  6
BYBLOCK
 62
     0
 10
79.47782866909061
 20
969.3802131103141
 30
0.0
 11
27.06920030628283
 21
947.6718484570638
 31
0.0
  0
LINE
  5
1380
  8
0
  6
BYBLOCK
 62
     0
 10
103.7033020773391
 20
763.1311232884891
 30
0.0
 11
69.68325670299515
 21
845.2627782237633
 31
0.0
  0
LINE
  5
1381
  8
0
  6
BYBLOCK
 62
     0
 10
27.30438163996059
 20
947.5744331590375
 30
0.0
 11
61.32442701430456
 21
865.4427782237633
 31
0.0
  0
SOLID
  5
1382
  8
0
  6
BYBLOCK
 62
     0
 10
103.7721850951649
 20
762.9648249726371
 30
0.0
 11
103.7310184633145
 21
763.14260379146
 31
0.0
 12
103.6755856913638
 22
763.1196427855182
 32
0.0
 13
103.6755856913638
 23
763.1196427855182
 33
0.0
  0
SOLID
  5
1383
  8
0
  6
BYBLOCK
 62
     0
 10
27.23549862213486
 20
947.7407314748896
 30
0.0
 11
27.33209802593593
 21
947.5859136620085
 31
0.0
 12
27.27666525398524
 22
947.5629526560666
 32
0.0
 13
27.27666525398524
 23
947.5629526560666
 33
0.0
  0
TEXT
  5
1384
  8
0
  6
BYBLOCK
 62
     0
 10
33.38057727810121
 20
906.7739399442853
 30
0.0
 40
20.0
  1
200.0000
 50
292.5000000000038
  0
ENDBLK
  5
18CF
  8
0
  0
BLOCK
  8
0
  2
*D57
 70
     1
 10
0.0
 20
0.0
 30
0.0
  3
*D57
  1

  0
TEXT
  5
1388
  8
0
  6
BYBLOCK
 62
     0
 10
380.7506602684654
 20
1081.565586216694
 30
0.0
 40
20.0
  1
45.00°
  0
POINT
  5
1389
  8
DEFPOINTS
  6
BYBLOCK
 62
     0
 10
-111.8061450426603
 20
1431.343897080485
 30
0.0
  0
POINT
  5
138A
  8
DEFPOINTS
  6
BYBLOCK
 62
     0
 10
691.8290629240282
 20
784.6282243225845
 30
0.0
  0
POINT
  5
138B
  8
DEFPOINTS
  6
BYBLOCK
 62
     0
 10
959.707465579591
 20
1431.343897080485
 30
0.0
  0
POINT
  5
138C
  8
DEFPOINTS
  6
BYBLOCK
 62
     0
 10
156.0722576129025
 20
784.6282243225844
 30
0.0
  0
SOLID
  5
138D
  8
0
  6
BYBLOCK
 62
     0
 10
788.8978768544805
 20
1018.973071396953
 30
0.0
 11
788.7200941513917
 21
1019.014221250931
 31
0.0
 12
788.743049925822
 22
1019.069656189556
 32
0.0
 13
788.743049925822
 23
1019.069656189556
 33
0.0
  0
SOLID
  5
138E
  8
0
  6
BYBLOCK
 62
     0
 10
59.00344368245035
 20
1018.973071396953
 30
0.0
 11
59.1582706111089
 21
1019.069656189556
 31
0.0
 12
59.18122638553914
 22
1019.014221250931
 32
0.0
 13
59.18122638553914
 23
1019.014221250931
 33
0.0
  0
ARC
  5
138F
  8
0
  6
BYBLOCK
 62
     0
 10
423.9506602684654
 20
137.9125515646837
 30
0.0
 40
953.65303465201
 50
67.51081445762026
 51
87.39822888762107
  0
ARC
  5
1390
  8
0
  6
BYBLOCK
 62
     0
 10
423.9506602684654
 20
137.9125515646837
 30
0.0
 40
953.65303465201
 50
92.60177111237893
 51
112.4891855423797
  0
ENDBLK
  5
18D1
  8
0
  0
BLOCK
  8
0
  2
*D58
 70
     1
 10
0.0
 20
0.0
 30
0.0
  3
*D58
  1

  0
POINT
  5
1394
  8
DEFPOINTS
  6
BYBLOCK
 62
     0
 10
-35.26930908386703
 20
1246.567629687642
 30
0.0
  0
POINT
  5
1395
  8
DEFPOINTS
  6
BYBLOCK
 62
     0
 10
882.9496041035342
 20
1246.034026886234
 30
0.0
  0
LINE
  5
1396
  8
0
  6
BYBLOCK
 62
     0
 10
-35.26930908386703
 20
1246.630129687642
 30
0.0
 11
-35.26930908386703
 21
1320.030934706611
 31
0.0
  0
LINE
  5
1397
  8
0
  6
BYBLOCK
 62
     0
 10
882.9496041035342
 20
1246.096526886234
 30
0.0
 11
882.9496041035342
 21
1320.030934706611
 31
0.0
  0
LINE
  5
1398
  8
0
  6
BYBLOCK
 62
     0
 10
-35.08930908386703
 20
1319.850934706611
 30
0.0
 11
360.3501475098336
 21
1319.850934706611
 31
0.0
  0
LINE
  5
1399
  8
0
  6
BYBLOCK
 62
     0
 10
882.7696041035342
 20
1319.850934706611
 30
0.0
 11
487.3301475098335
 21
1319.850934706611
 31
0.0
  0
SOLID
  5
139A
  8
0
  6
BYBLOCK
 62
     0
 10
-35.26930908386703
 20
1319.850934706611
 30
0.0
 11
-35.08930908386703
 21
1319.820934706611
 31
0.0
 12
-35.08930908386703
 22
1319.880934706611
 32
0.0
 13
-35.08930908386703
 23
1319.880934706611
 33
0.0
  0
SOLID
  5
139B
  8
0
  6
BYBLOCK
 62
     0
 10
882.9496041035342
 20
1319.850934706611
 30
0.0
 11
882.7696041035342
 21
1319.820934706611
 31
0.0
 12
882.7696041035342
 22
1319.880934706611
 32
0.0
 13
882.7696041035342
 23
1319.880934706611
 33
0.0
  0
TEXT
  5
139C
  8
0
  6
BYBLOCK
 62
     0
 10
360.4401475098335
 20
1309.850934706611
 30
0.0
 40
20.0
  1
918.2189
  0
ENDBLK
  5
18D3
  8
0
  0
BLOCK
  8
0
  2
*D59
 70
     1
 10
0.0
 20
0.0
 30
0.0
  3
*D59
  1

  0
POINT
  5
13A0
  8
DEFPOINTS
  6
BYBLOCK
 62
     0
 10
691.8290629240282
 20
784.0032243225845
 30
0.0
  0
POINT
  5
13A1
  8
DEFPOINTS
  6
BYBLOCK
 62
     0
 10
882.9496041035342
 20
1246.034026886234
 30
0.0
  0
LINE
  5
13A2
  8
0
  6
BYBLOCK
 62
     0
 10
691.886816829356
 20
783.9793342321831
 30
0.0
 11
832.8841467512185
 21
725.6553310488251
 31
0.0
  0
LINE
  5
13A3
  8
0
  6
BYBLOCK
 62
     0
 10
883.007358008862
 20
1246.010136795832
 30
0.0
 11
1024.004687930724
 21
1187.686133612474
 31
0.0
  0
LINE
  5
13A4
  8
0
  6
BYBLOCK
 62
     0
 10
832.7866189642306
 20
725.8904657565253
 30
0.0
 11
924.1043248426435
 21
946.6495357910056
 31
0.0
  0
LINE
  5
13A5
  8
0
  6
BYBLOCK
 62
     0
 10
1023.769553223024
 20
1187.588605825486
 30
0.0
 11
932.4518473446115
 21
966.8295357910057
 31
0.0
  0
SOLID
  5
13A6
  8
0
  6
BYBLOCK
 62
     0
 10
832.7178155038745
 20
725.7241345091812
 30
0.0
 11
832.8143408387879
 21
725.8789985131326
 31
0.0
 12
832.7588970896732
 22
725.9019329999179
 32
0.0
 13
832.7588970896732
 23
725.9019329999179
 33
0.0
  0
SOLID
  5
13A7
  8
0
  6
BYBLOCK
 62
     0
 10
1023.83835668338
 20
1187.75493707283
 30
0.0
 11
1023.797275097582
 21
1187.577138582093
 31
0.0
 12
1023.741831348467
 22
1187.600073068879
 32
0.0
 13
1023.741831348467
 23
1187.600073068879
 33
0.0
  0
TEXT
  5
13A8
  8
0
  6
BYBLOCK
 62
     0
 10
910.7618096965016
 20
888.2327473596431
 30
0.0
 40
20.0
  1
499.9995
 50
67.52740770910468
  0
ENDBLK
  5
18D5
  8
0
  0
BLOCK
  8
0
  2
*D60
 70
     1
 10
0.0
 20
0.0
 30
0.0
  3
*D60
  1

  0
POINT
  5
13AC
  8
DEFPOINTS
  6
BYBLOCK
 62
     0
 10
156.0722576129025
 20
784.0032243225844
 30
0.0
  0
POINT
  5
13AD
  8
DEFPOINTS
  6
BYBLOCK
 62
     0
 10
-35.26930908386703
 20
1246.567629687642
 30
0.0
  0
LINE
  5
13AE
  8
0
  6
BYBLOCK
 62
     0
 10
156.0145037207604
 20
783.979334200307
 30
0.0
 11
51.77048199318618
 21
740.8583888686304
 31
0.0
  0
LINE
  5
13AF
  8
0
  6
BYBLOCK
 62
     0
 10
-35.32706297600925
 20
1246.543739565364
 30
0.0
 11
-139.5710847035834
 21
1203.422794233688
 31
0.0
  0
LINE
  5
13B0
  8
0
  6
BYBLOCK
 62
     0
 10
51.86800965039693
 20
741.0935236301588
 30
0.0
 11
-39.56020237300024
 21
962.119395103318
 31
0.0
  0
LINE
  5
13B1
  8
0
  6
BYBLOCK
 62
     0
 10
-139.335949942055
 20
1203.325266576477
 30
0.0
 11
-47.90773791865788
 21
982.299395103318
 31
0.0
  0
SOLID
  5
13B2
  8
0
  6
BYBLOCK
 62
     0
 10
51.93681320255572
 20
740.9271924207893
 30
0.0
 11
51.89573151862518
 21
741.104990888852
 31
0.0
 12
51.84028778216867
 22
741.0820563714657
 32
0.0
 13
51.84028778216867
 23
741.0820563714657
 33
0.0
  0
SOLID
  5
13B3
  8
0
  6
BYBLOCK
 62
     0
 10
-139.4047534942138
 20
1203.491597785847
 30
0.0
 11
-139.3082280738268
 21
1203.33673383517
 31
0.0
 12
-139.3636718102833
 22
1203.313799317784
 32
0.0
 13
-139.3636718102833
 23
1203.313799317784
 33
0.0
  0
TEXT
  5
13B4
  8
0
  6
BYBLOCK
 62
     0
 10
-77.13228453544582
 20
1026.787711273133
 30
0.0
 40
20.0
  1
500.5771
 50
292.4726239139999
  0
ENDBLK
  5
18D7
  8
0
  0
BLOCK
  8
0
  2
*D61
 70
     1
 10
0.0
 20
0.0
 30
0.0
  3
*D61
  1

  0
POINT
  5
13B8
  8
DEFPOINTS
  6
BYBLOCK
 62
     0
 10
156.0722576129025
 20
784.6282243225844
 30
0.0
  0
POINT
  5
13B9
  8
DEFPOINTS
  6
BYBLOCK
 62
     0
 10
691.8290629240282
 20
784.6282243225845
 30
0.0
  0
LINE
  5
13BA
  8
0
  6
BYBLOCK
 62
     0
 10
156.0722576129025
 20
784.5657243225844
 30
0.0
 11
156.0722576129025
 21
713.7358894143354
 31
0.0
  0
LINE
  5
13BB
  8
0
  6
BYBLOCK
 62
     0
 10
691.8290629240282
 20
784.5657243225845
 30
0.0
 11
691.8290629240282
 21
713.7358894143354
 31
0.0
  0
LINE
  5
13BC
  8
0
  6
BYBLOCK
 62
     0
 10
156.2522576129026
 20
713.9158894143354
 30
0.0
 11
353.8606602684654
 21
713.9158894143354
 31
0.0
  0
LINE
  5
13BD
  8
0
  6
BYBLOCK
 62
     0
 10
691.6490629240282
 20
713.9158894143354
 30
0.0
 11
494.0406602684654
 21
713.9158894143354
 31
0.0
  0
SOLID
  5
13BE
  8
0
  6
BYBLOCK
 62
     0
 10
156.0722576129025
 20
713.9158894143354
 30
0.0
 11
156.2522576129026
 21
713.8858894143355
 31
0.0
 12
156.2522576129026
 22
713.9458894143354
 32
0.0
 13
156.2522576129026
 23
713.9458894143354
 33
0.0
  0
SOLID
  5
13BF
  8
0
  6
BYBLOCK
 62
     0
 10
691.8290629240282
 20
713.9158894143354
 30
0.0
 11
691.6490629240282
 21
713.8858894143355
 31
0.0
 12
691.6490629240282
 22
713.9458894143354
 32
0.0
 13
691.6490629240282
 23
713.9458894143354
 33
0.0
  0
TEXT
  5
13C0
  8
0
  6
BYBLOCK
 62
     0
 10
353.9506602684654
 20
703.9158894143354
 30
0.0
 40
20.0
  1
535.7568
  0
ENDBLK
  5
18D9
  8
0
  0
BLOCK
  8
0
  2
*D62
 70
     1
 10
0.0
 20
0.0
 30
0.0
  3
*D62
  1

  0
POINT
  5
13C4
  8
DEFPOINTS
  6
BYBLOCK
 62
     0
 10
691.8290629240282
 20
784.6282243225845
 30
0.0
  0
POINT
  5
13C5
  8
DEFPOINTS
  6
BYBLOCK
 62
     0
 10
768.3657493970461
 20
969.4041308248419
 30
0.0
  0
LINE
  5
13C6
  8
0
  6
BYBLOCK
 62
     0
 10
691.8868053948102
 20
784.6043066080617
 30
0.0
 11
761.6509721707451
 21
755.707042561811
 31
0.0
  0
LINE
  5
13C7
  8
0
  6
BYBLOCK
 62
     0
 10
768.423491867828
 20
969.3802131103191
 30
0.0
 11
838.187658643763
 21
940.4829490640684
 31
0.0
  0
LINE
  5
13C8
  8
0
  6
BYBLOCK
 62
     0
 10
761.5535568727189
 20
755.9422238954887
 30
0.0
 11
795.5736022470576
 21
838.0738788307654
 31
0.0
  0
LINE
  5
13C9
  8
0
  6
BYBLOCK
 62
     0
 10
837.9524773100853
 20
940.385533766042
 30
0.0
 11
803.9324319357465
 21
858.2538788307654
 31
0.0
  0
SOLID
  5
13CA
  8
0
  6
BYBLOCK
 62
     0
 10
761.4846738548931
 20
755.7759255796367
 30
0.0
 11
761.5812732586942
 21
755.9307433925178
 31
0.0
 12
761.5258404867435
 22
755.9537043984596
 32
0.0
 13
761.5258404867435
 23
755.9537043984596
 33
0.0
  0
SOLID
  5
13CB
  8
0
  6
BYBLOCK
 62
     0
 10
838.021360327911
 20
940.5518320818941
 30
0.0
 11
837.9801936960606
 21
940.3740532630711
 31
0.0
 12
837.9247609241099
 22
940.397014269013
 32
0.0
 13
837.9247609241099
 23
940.397014269013
 33
0.0
  0
TEXT
  5
13CC
  8
0
  6
BYBLOCK
 62
     0
 10
786.1073431610826
 20
789.0890484629396
 30
0.0
 40
20.0
  1
200.0000
 50
67.5
  0
ENDBLK
  5
18DB
  8
0
  0
BLOCK
  8
0
  2
*D63
 70
     1
 10
0.0
 20
0.0
 30
0.0
  3
*D63
  1

  0
POINT
  5
13D0
  8
DEFPOINTS
  6
BYBLOCK
 62
     0
 10
156.0722576129025
 20
784.6282243225844
 30
0.0
  0
POINT
  5
13D1
  8
DEFPOINTS
  6
BYBLOCK
 62
     0
 10
79.53557113987256
 20
969.4041308248369
 30
0.0
  0
LINE
  5
13D2
  8
0
  6
BYBLOCK
 62
     0
 10
156.0145151421206
 20
784.6043066080616
 30
0.0
 11
103.6058867793128
 21
762.8959419548114
 31
0.0
  0
LINE
  5
13D3
  8
0
  6
BYBLOCK
 62
     0
 10
79.47782866909061
 20
969.3802131103141
 30
0.0
 11
27.06920030628283
 21
947.6718484570638
 31
0.0
  0
LINE
  5
13D4
  8
0
  6
BYBLOCK
 62
     0
 10
103.7033020773391
 20
763.1311232884891
 30
0.0
 11
69.68325670299515
 21
845.2627782237633
 31
0.0
  0
LINE
  5
13D5
  8
0
  6
BYBLOCK
 62
     0
 10
27.30438163996059
 20
947.5744331590375
 30
0.0
 11
61.32442701430456
 21
865.4427782237633
 31
0.0
  0
SOLID
  5
13D6
  8
0
  6
BYBLOCK
 62
     0
 10
103.7721850951649
 20
762.9648249726371
 30
0.0
 11
103.7310184633145
 21
763.14260379146
 31
0.0
 12
103.6755856913638
 22
763.1196427855182
 32
0.0
 13
103.6755856913638
 23
763.1196427855182
 33
0.0
  0
SOLID
  5
13D7
  8
0
  6
BYBLOCK
 62
     0
 10
27.23549862213486
 20
947.7407314748896
 30
0.0
 11
27.33209802593593
 21
947.5859136620085
 31
0.0
 12
27.27666525398524
 22
947.5629526560666
 32
0.0
 13
27.27666525398524
 23
947.5629526560666
 33
0.0
  0
TEXT
  5
13D8
  8
0
  6
BYBLOCK
 62
     0
 10
33.38057727810121
 20
906.7739399442853
 30
0.0
 40
20.0
  1
200.0000
 50
292.5000000000038
  0
ENDBLK
  5
18DD
  8
0
  0
BLOCK
  8
0
  2
*D64
 70
     1
 10
0.0
 20
0.0
 30
0.0
  3
*D64
  1

  0
TEXT
  5
13DC
  8
0
  6
BYBLOCK
 62
     0
 10
380.7506602684654
 20
1081.565586216694
 30
0.0
 40
20.0
  1
45.00°
  0
POINT
  5
13DD
  8
DEFPOINTS
  6
BYBLOCK
 62
     0
 10
-111.8061450426603
 20
1431.343897080485
 30
0.0
  0
POINT
  5
13DE
  8
DEFPOINTS
  6
BYBLOCK
 62
     0
 10
691.8290629240282
 20
784.6282243225845
 30
0.0
  0
POINT
  5
13DF
  8
DEFPOINTS
  6
BYBLOCK
 62
     0
 10
959.707465579591
 20
1431.343897080485
 30
0.0
  0
POINT
  5
13E0
  8
DEFPOINTS
  6
BYBLOCK
 62
     0
 10
156.0722576129025
 20
784.6282243225844
 30
0.0
  0
SOLID
  5
13E1
  8
0
  6
BYBLOCK
 62
     0
 10
788.8978768544805
 20
1018.973071396953
 30
0.0
 11
788.7200941513917
 21
1019.014221250931
 31
0.0
 12
788.743049925822
 22
1019.069656189556
 32
0.0
 13
788.743049925822
 23
1019.069656189556
 33
0.0
  0
SOLID
  5
13E2
  8
0
  6
BYBLOCK
 62
     0
 10
59.00344368245035
 20
1018.973071396953
 30
0.0
 11
59.1582706111089
 21
1019.069656189556
 31
0.0
 12
59.18122638553914
 22
1019.014221250931
 32
0.0
 13
59.18122638553914
 23
1019.014221250931
 33
0.0
  0
ARC
  5
13E3
  8
0
  6
BYBLOCK
 62
     0
 10
423.9506602684654
 20
137.9125515646837
 30
0.0
 40
953.65303465201
 50
67.51081445762026
 51
87.39822888762107
  0
ARC
  5
13E4
  8
0
  6
BYBLOCK
 62
     0
 10
423.9506602684654
 20
137.9125515646837
 30
0.0
 40
953.65303465201
 50
92.60177111237893
 51
112.4891855423797
  0
ENDBLK
  5
18DF
  8
0
  0
BLOCK
  8
0
  2
*D65
 70
     1
 10
0.0
 20
0.0
 30
0.0
  3
*D65
  1

  0
POINT
  5
13E8
  8
DEFPOINTS
  6
BYBLOCK
 62
     0
 10
-35.26930908386703
 20
1246.567629687642
 30
0.0
  0
POINT
  5
13E9
  8
DEFPOINTS
  6
BYBLOCK
 62
     0
 10
882.9496041035342
 20
1246.034026886234
 30
0.0
  0
LINE
  5
13EA
  8
0
  6
BYBLOCK
 62
     0
 10
-35.26930908386703
 20
1246.630129687642
 30
0.0
 11
-35.26930908386703
 21
1320.030934706611
 31
0.0
  0
LINE
  5
13EB
  8
0
  6
BYBLOCK
 62
     0
 10
882.9496041035342
 20
1246.096526886234
 30
0.0
 11
882.9496041035342
 21
1320.030934706611
 31
0.0
  0
LINE
  5
13EC
  8
0
  6
BYBLOCK
 62
     0
 10
-35.08930908386703
 20
1319.850934706611
 30
0.0
 11
360.3501475098336
 21
1319.850934706611
 31
0.0
  0
LINE
  5
13ED
  8
0
  6
BYBLOCK
 62
     0
 10
882.7696041035342
 20
1319.850934706611
 30
0.0
 11
487.3301475098335
 21
1319.850934706611
 31
0.0
  0
SOLID
  5
13EE
  8
0
  6
BYBLOCK
 62
     0
 10
-35.26930908386703
 20
1319.850934706611
 30
0.0
 11
-35.08930908386703
 21
1319.820934706611
 31
0.0
 12
-35.08930908386703
 22
1319.880934706611
 32
0.0
 13
-35.08930908386703
 23
1319.880934706611
 33
0.0
  0
SOLID
  5
13EF
  8
0
  6
BYBLOCK
 62
     0
 10
882.9496041035342
 20
1319.850934706611
 30
0.0
 11
882.7696041035342
 21
1319.820934706611
 31
0.0
 12
882.7696041035342
 22
1319.880934706611
 32
0.0
 13
882.7696041035342
 23
1319.880934706611
 33
0.0
  0
TEXT
  5
13F0
  8
0
  6
BYBLOCK
 62
     0
 10
360.4401475098335
 20
1309.850934706611
 30
0.0
 40
20.0
  1
918.2189
  0
ENDBLK
  5
18E1
  8
0
  0
BLOCK
  8
0
  2
*D66
 70
     1
 10
0.0
 20
0.0
 30
0.0
  3
*D66
  1

  0
POINT
  5
13F4
  8
DEFPOINTS
  6
BYBLOCK
 62
     0
 10
691.8290629240282
 20
784.0032243225845
 30
0.0
  0
POINT
  5
13F5
  8
DEFPOINTS
  6
BYBLOCK
 62
     0
 10
882.9496041035342
 20
1246.034026886234
 30
0.0
  0
LINE
  5
13F6
  8
0
  6
BYBLOCK
 62
     0
 10
691.886816829356
 20
783.9793342321831
 30
0.0
 11
832.8841467512185
 21
725.6553310488251
 31
0.0
  0
LINE
  5
13F7
  8
0
  6
BYBLOCK
 62
     0
 10
883.007358008862
 20
1246.010136795832
 30
0.0
 11
1024.004687930724
 21
1187.686133612474
 31
0.0
  0
LINE
  5
13F8
  8
0
  6
BYBLOCK
 62
     0
 10
832.7866189642306
 20
725.8904657565253
 30
0.0
 11
924.1043248426435
 21
946.6495357910056
 31
0.0
  0
LINE
  5
13F9
  8
0
  6
BYBLOCK
 62
     0
 10
1023.769553223024
 20
1187.588605825486
 30
0.0
 11
932.4518473446115
 21
966.8295357910057
 31
0.0
  0
SOLID
  5
13FA
  8
0
  6
BYBLOCK
 62
     0
 10
832.7178155038745
 20
725.7241345091812
 30
0.0
 11
832.8143408387879
 21
725.8789985131326
 31
0.0
 12
832.7588970896732
 22
725.9019329999179
 32
0.0
 13
832.7588970896732
 23
725.9019329999179
 33
0.0
  0
SOLID
  5
13FB
  8
0
  6
BYBLOCK
 62
     0
 10
1023.83835668338
 20
1187.75493707283
 30
0.0
 11
1023.797275097582
 21
1187.577138582093
 31
0.0
 12
1023.741831348467
 22
1187.600073068879
 32
0.0
 13
1023.741831348467
 23
1187.600073068879
 33
0.0
  0
TEXT
  5
13FC
  8
0
  6
BYBLOCK
 62
     0
 10
910.7618096965016
 20
888.2327473596431
 30
0.0
 40
20.0
  1
499.9995
 50
67.52740770910468
  0
ENDBLK
  5
18E3
  8
0
  0
BLOCK
  8
0
  2
*D67
 70
     1
 10
0.0
 20
0.0
 30
0.0
  3
*D67
  1

  0
POINT
  5
1400
  8
DEFPOINTS
  6
BYBLOCK
 62
     0
 10
156.0722576129025
 20
784.0032243225844
 30
0.0
  0
POINT
  5
1401
  8
DEFPOINTS
  6
BYBLOCK
 62
     0
 10
-35.26930908386703
 20
1246.567629687642
 30
0.0
  0
LINE
  5
1402
  8
0
  6
BYBLOCK
 62
     0
 10
156.0145037207604
 20
783.979334200307
 30
0.0
 11
51.77048199318618
 21
740.8583888686304
 31
0.0
  0
LINE
  5
1403
  8
0
  6
BYBLOCK
 62
     0
 10
-35.32706297600925
 20
1246.543739565364
 30
0.0
 11
-139.5710847035834
 21
1203.422794233688
 31
0.0
  0
LINE
  5
1404
  8
0
  6
BYBLOCK
 62
     0
 10
51.86800965039693
 20
741.0935236301588
 30
0.0
 11
-39.56020237300024
 21
962.119395103318
 31
0.0
  0
LINE
  5
1405
  8
0
  6
BYBLOCK
 62
     0
 10
-139.335949942055
 20
1203.325266576477
 30
0.0
 11
-47.90773791865788
 21
982.299395103318
 31
0.0
  0
SOLID
  5
1406
  8
0
  6
BYBLOCK
 62
     0
 10
51.93681320255572
 20
740.9271924207893
 30
0.0
 11
51.89573151862518
 21
741.104990888852
 31
0.0
 12
51.84028778216867
 22
741.0820563714657
 32
0.0
 13
51.84028778216867
 23
741.0820563714657
 33
0.0
  0
SOLID
  5
1407
  8
0
  6
BYBLOCK
 62
     0
 10
-139.4047534942138
 20
1203.491597785847
 30
0.0
 11
-139.3082280738268
 21
1203.33673383517
 31
0.0
 12
-139.3636718102833
 22
1203.313799317784
 32
0.0
 13
-139.3636718102833
 23
1203.313799317784
 33
0.0
  0
TEXT
  5
1408
  8
0
  6
BYBLOCK
 62
     0
 10
-77.13228453544582
 20
1026.787711273133
 30
0.0
 40
20.0
  1
500.5771
 50
292.4726239139999
  0
ENDBLK
  5
18E5
  8
0
  0
BLOCK
  8
0
  2
*D68
 70
     1
 10
0.0
 20
0.0
 30
0.0
  3
*D68
  1

  0
POINT
  5
140C
  8
DEFPOINTS
  6
BYBLOCK
 62
     0
 10
156.0722576129025
 20
784.6282243225844
 30
0.0
  0
POINT
  5
140D
  8
DEFPOINTS
  6
BYBLOCK
 62
     0
 10
691.8290629240282
 20
784.6282243225845
 30
0.0
  0
LINE
  5
140E
  8
0
  6
BYBLOCK
 62
     0
 10
156.0722576129025
 20
784.5657243225844
 30
0.0
 11
156.0722576129025
 21
713.7358894143354
 31
0.0
  0
LINE
  5
140F
  8
0
  6
BYBLOCK
 62
     0
 10
691.8290629240282
 20
784.5657243225845
 30
0.0
 11
691.8290629240282
 21
713.7358894143354
 31
0.0
  0
LINE
  5
1410
  8
0
  6
BYBLOCK
 62
     0
 10
156.2522576129026
 20
713.9158894143354
 30
0.0
 11
353.8606602684654
 21
713.9158894143354
 31
0.0
  0
LINE
  5
1411
  8
0
  6
BYBLOCK
 62
     0
 10
691.6490629240282
 20
713.9158894143354
 30
0.0
 11
494.0406602684654
 21
713.9158894143354
 31
0.0
  0
SOLID
  5
1412
  8
0
  6
BYBLOCK
 62
     0
 10
156.0722576129025
 20
713.9158894143354
 30
0.0
 11
156.2522576129026
 21
713.8858894143355
 31
0.0
 12
156.2522576129026
 22
713.9458894143354
 32
0.0
 13
156.2522576129026
 23
713.9458894143354
 33
0.0
  0
SOLID
  5
1413
  8
0
  6
BYBLOCK
 62
     0
 10
691.8290629240282
 20
713.9158894143354
 30
0.0
 11
691.6490629240282
 21
713.8858894143355
 31
0.0
 12
691.6490629240282
 22
713.9458894143354
 32
0.0
 13
691.6490629240282
 23
713.9458894143354
 33
0.0
  0
TEXT
  5
1414
  8
0
  6
BYBLOCK
 62
     0
 10
353.9506602684654
 20
703.9158894143354
 30
0.0
 40
20.0
  1
535.7568
  0
ENDBLK
  5
18E7
  8
0
  0
BLOCK
  8
0
  2
*D69
 70
     1
 10
0.0
 20
0.0
 30
0.0
  3
*D69
  1

  0
POINT
  5
1418
  8
DEFPOINTS
  6
BYBLOCK
 62
     0
 10
691.8290629240282
 20
784.6282243225845
 30
0.0
  0
POINT
  5
1419
  8
DEFPOINTS
  6
BYBLOCK
 62
     0
 10
768.3657493970461
 20
969.4041308248419
 30
0.0
  0
LINE
  5
141A
  8
0
  6
BYBLOCK
 62
     0
 10
691.8868053948102
 20
784.6043066080617
 30
0.0
 11
761.6509721707451
 21
755.707042561811
 31
0.0
  0
LINE
  5
141B
  8
0
  6
BYBLOCK
 62
     0
 10
768.423491867828
 20
969.3802131103191
 30
0.0
 11
838.187658643763
 21
940.4829490640684
 31
0.0
  0
LINE
  5
141C
  8
0
  6
BYBLOCK
 62
     0
 10
761.5535568727189
 20
755.9422238954887
 30
0.0
 11
795.5736022470576
 21
838.0738788307654
 31
0.0
  0
LINE
  5
141D
  8
0
  6
BYBLOCK
 62
     0
 10
837.9524773100853
 20
940.385533766042
 30
0.0
 11
803.9324319357465
 21
858.2538788307654
 31
0.0
  0
SOLID
  5
141E
  8
0
  6
BYBLOCK
 62
     0
 10
761.4846738548931
 20
755.7759255796367
 30
0.0
 11
761.5812732586942
 21
755.9307433925178
 31
0.0
 12
761.5258404867435
 22
755.9537043984596
 32
0.0
 13
761.5258404867435
 23
755.9537043984596
 33
0.0
  0
SOLID
  5
141F
  8
0
  6
BYBLOCK
 62
     0
 10
838.021360327911
 20
940.5518320818941
 30
0.0
 11
837.9801936960606
 21
940.3740532630711
 31
0.0
 12
837.9247609241099
 22
940.397014269013
 32
0.0
 13
837.9247609241099
 23
940.397014269013
 33
0.0
  0
TEXT
  5
1420
  8
0
  6
BYBLOCK
 62
     0
 10
786.1073431610826
 20
789.0890484629396
 30
0.0
 40
20.0
  1
200.0000
 50
67.5
  0
ENDBLK
  5
18E9
  8
0
  0
BLOCK
  8
0
  2
*D70
 70
     1
 10
0.0
 20
0.0
 30
0.0
  3
*D70
  1

  0
POINT
  5
1424
  8
DEFPOINTS
  6
BYBLOCK
 62
     0
 10
156.0722576129025
 20
784.6282243225844
 30
0.0
  0
POINT
  5
1425
  8
DEFPOINTS
  6
BYBLOCK
 62
     0
 10
79.53557113987256
 20
969.4041308248369
 30
0.0
  0
LINE
  5
1426
  8
0
  6
BYBLOCK
 62
     0
 10
156.0145151421206
 20
784.6043066080616
 30
0.0
 11
103.6058867793128
 21
762.8959419548114
 31
0.0
  0
LINE
  5
1427
  8
0
  6
BYBLOCK
 62
     0
 10
79.47782866909061
 20
969.3802131103141
 30
0.0
 11
27.06920030628283
 21
947.6718484570638
 31
0.0
  0
LINE
  5
1428
  8
0
  6
BYBLOCK
 62
     0
 10
103.7033020773391
 20
763.1311232884891
 30
0.0
 11
69.68325670299515
 21
845.2627782237633
 31
0.0
  0
LINE
  5
1429
  8
0
  6
BYBLOCK
 62
     0
 10
27.30438163996059
 20
947.5744331590375
 30
0.0
 11
61.32442701430456
 21
865.4427782237633
 31
0.0
  0
SOLID
  5
142A
  8
0
  6
BYBLOCK
 62
     0
 10
103.7721850951649
 20
762.9648249726371
 30
0.0
 11
103.7310184633145
 21
763.14260379146
 31
0.0
 12
103.6755856913638
 22
763.1196427855182
 32
0.0
 13
103.6755856913638
 23
763.1196427855182
 33
0.0
  0
SOLID
  5
142B
  8
0
  6
BYBLOCK
 62
     0
 10
27.23549862213486
 20
947.7407314748896
 30
0.0
 11
27.33209802593593
 21
947.5859136620085
 31
0.0
 12
27.27666525398524
 22
947.5629526560666
 32
0.0
 13
27.27666525398524
 23
947.5629526560666
 33
0.0
  0
TEXT
  5
142C
  8
0
  6
BYBLOCK
 62
     0
 10
33.38057727810121
 20
906.7739399442853
 30
0.0
 40
20.0
  1
200.0000
 50
292.5000000000038
  0
ENDBLK
  5
18EB
  8
0
  0
BLOCK
  8
0
  2
*D71
 70
     1
 10
0.0
 20
0.0
 30
0.0
  3
*D71
  1

  0
TEXT
  5
1430
  8
0
  6
BYBLOCK
 62
     0
 10
380.7506602684654
 20
1081.565586216694
 30
0.0
 40
20.0
  1
45.00°
  0
POINT
  5
1431
  8
DEFPOINTS
  6
BYBLOCK
 62
     0
 10
-111.8061450426603
 20
1431.343897080485
 30
0.0
  0
POINT
  5
1432
  8
DEFPOINTS
  6
BYBLOCK
 62
     0
 10
691.8290629240282
 20
784.6282243225845
 30
0.0
  0
POINT
  5
1433
  8
DEFPOINTS
  6
BYBLOCK
 62
     0
 10
959.707465579591
 20
1431.343897080485
 30
0.0
  0
POINT
  5
1434
  8
DEFPOINTS
  6
BYBLOCK
 62
     0
 10
156.0722576129025
 20
784.6282243225844
 30
0.0
  0
SOLID
  5
1435
  8
0
  6
BYBLOCK
 62
     0
 10
788.8978768544805
 20
1018.973071396953
 30
0.0
 11
788.7200941513917
 21
1019.014221250931
 31
0.0
 12
788.743049925822
 22
1019.069656189556
 32
0.0
 13
788.743049925822
 23
1019.069656189556
 33
0.0
  0
SOLID
  5
1436
  8
0
  6
BYBLOCK
 62
     0
 10
59.00344368245035
 20
1018.973071396953
 30
0.0
 11
59.1582706111089
 21
1019.069656189556
 31
0.0
 12
59.18122638553914
 22
1019.014221250931
 32
0.0
 13
59.18122638553914
 23
1019.014221250931
 33
0.0
  0
ARC
  5
1437
  8
0
  6
BYBLOCK
 62
     0
 10
423.9506602684654
 20
137.9125515646837
 30
0.0
 40
953.65303465201
 50
67.51081445762026
 51
87.39822888762107
  0
ARC
  5
1438
  8
0
  6
BYBLOCK
 62
     0
 10
423.9506602684654
 20
137.9125515646837
 30
0.0
 40
953.65303465201
 50
92.60177111237893
 51
112.4891855423797
  0
ENDBLK
  5
18ED
  8
0
  0
BLOCK
  8
0
  2
*D72
 70
     1
 10
0.0
 20
0.0
 30
0.0
  3
*D72
  1

  0
POINT
  5
143C
  8
DEFPOINTS
  6
BYBLOCK
 62
     0
 10
-35.26930908386703
 20
1246.567629687642
 30
0.0
  0
POINT
  5
143D
  8
DEFPOINTS
  6
BYBLOCK
 62
     0
 10
882.9496041035342
 20
1246.034026886234
 30
0.0
  0
LINE
  5
143E
  8
0
  6
BYBLOCK
 62
     0
 10
-35.26930908386703
 20
1246.630129687642
 30
0.0
 11
-35.26930908386703
 21
1320.030934706611
 31
0.0
  0
LINE
  5
143F
  8
0
  6
BYBLOCK
 62
     0
 10
882.9496041035342
 20
1246.096526886234
 30
0.0
 11
882.9496041035342
 21
1320.030934706611
 31
0.0
  0
LINE
  5
1440
  8
0
  6
BYBLOCK
 62
     0
 10
-35.08930908386703
 20
1319.850934706611
 30
0.0
 11
360.3501475098336
 21
1319.850934706611
 31
0.0
  0
LINE
  5
1441
  8
0
  6
BYBLOCK
 62
     0
 10
882.7696041035342
 20
1319.850934706611
 30
0.0
 11
487.3301475098335
 21
1319.850934706611
 31
0.0
  0
SOLID
  5
1442
  8
0
  6
BYBLOCK
 62
     0
 10
-35.26930908386703
 20
1319.850934706611
 30
0.0
 11
-35.08930908386703
 21
1319.820934706611
 31
0.0
 12
-35.08930908386703
 22
1319.880934706611
 32
0.0
 13
-35.08930908386703
 23
1319.880934706611
 33
0.0
  0
SOLID
  5
1443
  8
0
  6
BYBLOCK
 62
     0
 10
882.9496041035342
 20
1319.850934706611
 30
0.0
 11
882.7696041035342
 21
1319.820934706611
 31
0.0
 12
882.7696041035342
 22
1319.880934706611
 32
0.0
 13
882.7696041035342
 23
1319.880934706611
 33
0.0
  0
TEXT
  5
1444
  8
0
  6
BYBLOCK
 62
     0
 10
360.4401475098335
 20
1309.850934706611
 30
0.0
 40
20.0
  1
918.2189
  0
ENDBLK
  5
18EF
  8
0
  0
BLOCK
  8
0
  2
*D73
 70
     1
 10
0.0
 20
0.0
 30
0.0
  3
*D73
  1

  0
POINT
  5
1448
  8
DEFPOINTS
  6
BYBLOCK
 62
     0
 10
691.8290629240282
 20
784.0032243225845
 30
0.0
  0
POINT
  5
1449
  8
DEFPOINTS
  6
BYBLOCK
 62
     0
 10
882.9496041035342
 20
1246.034026886234
 30
0.0
  0
LINE
  5
144A
  8
0
  6
BYBLOCK
 62
     0
 10
691.886816829356
 20
783.9793342321831
 30
0.0
 11
832.8841467512185
 21
725.6553310488251
 31
0.0
  0
LINE
  5
144B
  8
0
  6
BYBLOCK
 62
     0
 10
883.007358008862
 20
1246.010136795832
 30
0.0
 11
1024.004687930724
 21
1187.686133612474
 31
0.0
  0
LINE
  5
144C
  8
0
  6
BYBLOCK
 62
     0
 10
832.7866189642306
 20
725.8904657565253
 30
0.0
 11
924.1043248426435
 21
946.6495357910056
 31
0.0
  0
LINE
  5
144D
  8
0
  6
BYBLOCK
 62
     0
 10
1023.769553223024
 20
1187.588605825486
 30
0.0
 11
932.4518473446115
 21
966.8295357910057
 31
0.0
  0
SOLID
  5
144E
  8
0
  6
BYBLOCK
 62
     0
 10
832.7178155038745
 20
725.7241345091812
 30
0.0
 11
832.8143408387879
 21
725.8789985131326
 31
0.0
 12
832.7588970896732
 22
725.9019329999179
 32
0.0
 13
832.7588970896732
 23
725.9019329999179
 33
0.0
  0
SOLID
  5
144F
  8
0
  6
BYBLOCK
 62
     0
 10
1023.83835668338
 20
1187.75493707283
 30
0.0
 11
1023.797275097582
 21
1187.577138582093
 31
0.0
 12
1023.741831348467
 22
1187.600073068879
 32
0.0
 13
1023.741831348467
 23
1187.600073068879
 33
0.0
  0
TEXT
  5
1450
  8
0
  6
BYBLOCK
 62
     0
 10
910.7618096965016
 20
888.2327473596431
 30
0.0
 40
20.0
  1
499.9995
 50
67.52740770910468
  0
ENDBLK
  5
18F1
  8
0
  0
BLOCK
  8
0
  2
*D74
 70
     1
 10
0.0
 20
0.0
 30
0.0
  3
*D74
  1

  0
POINT
  5
1454
  8
DEFPOINTS
  6
BYBLOCK
 62
     0
 10
156.0722576129025
 20
784.0032243225844
 30
0.0
  0
POINT
  5
1455
  8
DEFPOINTS
  6
BYBLOCK
 62
     0
 10
-35.26930908386703
 20
1246.567629687642
 30
0.0
  0
LINE
  5
1456
  8
0
  6
BYBLOCK
 62
     0
 10
156.0145037207604
 20
783.979334200307
 30
0.0
 11
51.77048199318618
 21
740.8583888686304
 31
0.0
  0
LINE
  5
1457
  8
0
  6
BYBLOCK
 62
     0
 10
-35.32706297600925
 20
1246.543739565364
 30
0.0
 11
-139.5710847035834
 21
1203.422794233688
 31
0.0
  0
LINE
  5
1458
  8
0
  6
BYBLOCK
 62
     0
 10
51.86800965039693
 20
741.0935236301588
 30
0.0
 11
-39.56020237300024
 21
962.119395103318
 31
0.0
  0
LINE
  5
1459
  8
0
  6
BYBLOCK
 62
     0
 10
-139.335949942055
 20
1203.325266576477
 30
0.0
 11
-47.90773791865788
 21
982.299395103318
 31
0.0
  0
SOLID
  5
145A
  8
0
  6
BYBLOCK
 62
     0
 10
51.93681320255572
 20
740.9271924207893
 30
0.0
 11
51.89573151862518
 21
741.104990888852
 31
0.0
 12
51.84028778216867
 22
741.0820563714657
 32
0.0
 13
51.84028778216867
 23
741.0820563714657
 33
0.0
  0
SOLID
  5
145B
  8
0
  6
BYBLOCK
 62
     0
 10
-139.4047534942138
 20
1203.491597785847
 30
0.0
 11
-139.3082280738268
 21
1203.33673383517
 31
0.0
 12
-139.3636718102833
 22
1203.313799317784
 32
0.0
 13
-139.3636718102833
 23
1203.313799317784
 33
0.0
  0
TEXT
  5
145C
  8
0
  6
BYBLOCK
 62
     0
 10
-77.13228453544582
 20
1026.787711273133
 30
0.0
 40
20.0
  1
500.5771
 50
292.4726239139999
  0
ENDBLK
  5
18F3
  8
0
  0
BLOCK
  8
0
  2
*D75
 70
     1
 10
0.0
 20
0.0
 30
0.0
  3
*D75
  1

  0
POINT
  5
1460
  8
DEFPOINTS
  6
BYBLOCK
 62
     0
 10
156.0722576129025
 20
784.6282243225844
 30
0.0
  0
POINT
  5
1461
  8
DEFPOINTS
  6
BYBLOCK
 62
     0
 10
691.8290629240282
 20
784.6282243225845
 30
0.0
  0
LINE
  5
1462
  8
0
  6
BYBLOCK
 62
     0
 10
156.0722576129025
 20
784.5657243225844
 30
0.0
 11
156.0722576129025
 21
713.7358894143354
 31
0.0
  0
LINE
  5
1463
  8
0
  6
BYBLOCK
 62
     0
 10
691.8290629240282
 20
784.5657243225845
 30
0.0
 11
691.8290629240282
 21
713.7358894143354
 31
0.0
  0
LINE
  5
1464
  8
0
  6
BYBLOCK
 62
     0
 10
156.2522576129026
 20
713.9158894143354
 30
0.0
 11
353.8606602684654
 21
713.9158894143354
 31
0.0
  0
LINE
  5
1465
  8
0
  6
BYBLOCK
 62
     0
 10
691.6490629240282
 20
713.9158894143354
 30
0.0
 11
494.0406602684654
 21
713.9158894143354
 31
0.0
  0
SOLID
  5
1466
  8
0
  6
BYBLOCK
 62
     0
 10
156.0722576129025
 20
713.9158894143354
 30
0.0
 11
156.2522576129026
 21
713.8858894143355
 31
0.0
 12
156.2522576129026
 22
713.9458894143354
 32
0.0
 13
156.2522576129026
 23
713.9458894143354
 33
0.0
  0
SOLID
  5
1467
  8
0
  6
BYBLOCK
 62
     0
 10
691.8290629240282
 20
713.9158894143354
 30
0.0
 11
691.6490629240282
 21
713.8858894143355
 31
0.0
 12
691.6490629240282
 22
713.9458894143354
 32
0.0
 13
691.6490629240282
 23
713.9458894143354
 33
0.0
  0
TEXT
  5
1468
  8
0
  6
BYBLOCK
 62
     0
 10
353.9506602684654
 20
703.9158894143354
 30
0.0
 40
20.0
  1
535.7568
  0
ENDBLK
  5
18F5
  8
0
  0
BLOCK
  8
0
  2
*D76
 70
     1
 10
0.0
 20
0.0
 30
0.0
  3
*D76
  1

  0
POINT
  5
146C
  8
DEFPOINTS
  6
BYBLOCK
 62
     0
 10
691.8290629240282
 20
784.6282243225845
 30
0.0
  0
POINT
  5
146D
  8
DEFPOINTS
  6
BYBLOCK
 62
     0
 10
768.3657493970461
 20
969.4041308248419
 30
0.0
  0
LINE
  5
146E
  8
0
  6
BYBLOCK
 62
     0
 10
691.8868053948102
 20
784.6043066080617
 30
0.0
 11
761.6509721707451
 21
755.707042561811
 31
0.0
  0
LINE
  5
146F
  8
0
  6
BYBLOCK
 62
     0
 10
768.423491867828
 20
969.3802131103191
 30
0.0
 11
838.187658643763
 21
940.4829490640684
 31
0.0
  0
LINE
  5
1470
  8
0
  6
BYBLOCK
 62
     0
 10
761.5535568727189
 20
755.9422238954887
 30
0.0
 11
795.5736022470576
 21
838.0738788307654
 31
0.0
  0
LINE
  5
1471
  8
0
  6
BYBLOCK
 62
     0
 10
837.9524773100853
 20
940.385533766042
 30
0.0
 11
803.9324319357465
 21
858.2538788307654
 31
0.0
  0
SOLID
  5
1472
  8
0
  6
BYBLOCK
 62
     0
 10
761.4846738548931
 20
755.7759255796367
 30
0.0
 11
761.5812732586942
 21
755.9307433925178
 31
0.0
 12
761.5258404867435
 22
755.9537043984596
 32
0.0
 13
761.5258404867435
 23
755.9537043984596
 33
0.0
  0
SOLID
  5
1473
  8
0
  6
BYBLOCK
 62
     0
 10
838.021360327911
 20
940.5518320818941
 30
0.0
 11
837.9801936960606
 21
940.3740532630711
 31
0.0
 12
837.9247609241099
 22
940.397014269013
 32
0.0
 13
837.9247609241099
 23
940.397014269013
 33
0.0
  0
TEXT
  5
1474
  8
0
  6
BYBLOCK
 62
     0
 10
786.1073431610826
 20
789.0890484629396
 30
0.0
 40
20.0
  1
200.0000
 50
67.5
  0
ENDBLK
  5
18F7
  8
0
  0
BLOCK
  8
0
  2
*D77
 70
     1
 10
0.0
 20
0.0
 30
0.0
  3
*D77
  1

  0
POINT
  5
1478
  8
DEFPOINTS
  6
BYBLOCK
 62
     0
 10
156.0722576129025
 20
784.6282243225844
 30
0.0
  0
POINT
  5
1479
  8
DEFPOINTS
  6
BYBLOCK
 62
     0
 10
79.53557113987256
 20
969.4041308248369
 30
0.0
  0
LINE
  5
147A
  8
0
  6
BYBLOCK
 62
     0
 10
156.0145151421206
 20
784.6043066080616
 30
0.0
 11
103.6058867793128
 21
762.8959419548114
 31
0.0
  0
LINE
  5
147B
  8
0
  6
BYBLOCK
 62
     0
 10
79.47782866909061
 20
969.3802131103141
 30
0.0
 11
27.06920030628283
 21
947.6718484570638
 31
0.0
  0
LINE
  5
147C
  8
0
  6
BYBLOCK
 62
     0
 10
103.7033020773391
 20
763.1311232884891
 30
0.0
 11
69.68325670299515
 21
845.2627782237633
 31
0.0
  0
LINE
  5
147D
  8
0
  6
BYBLOCK
 62
     0
 10
27.30438163996059
 20
947.5744331590375
 30
0.0
 11
61.32442701430456
 21
865.4427782237633
 31
0.0
  0
SOLID
  5
147E
  8
0
  6
BYBLOCK
 62
     0
 10
103.7721850951649
 20
762.9648249726371
 30
0.0
 11
103.7310184633145
 21
763.14260379146
 31
0.0
 12
103.6755856913638
 22
763.1196427855182
 32
0.0
 13
103.6755856913638
 23
763.1196427855182
 33
0.0
  0
SOLID
  5
147F
  8
0
  6
BYBLOCK
 62
     0
 10
27.23549862213486
 20
947.7407314748896
 30
0.0
 11
27.33209802593593
 21
947.5859136620085
 31
0.0
 12
27.27666525398524
 22
947.5629526560666
 32
0.0
 13
27.27666525398524
 23
947.5629526560666
 33
0.0
  0
TEXT
  5
1480
  8
0
  6
BYBLOCK
 62
     0
 10
33.38057727810121
 20
906.7739399442853
 30
0.0
 40
20.0
  1
200.0000
 50
292.5000000000038
  0
ENDBLK
  5
18F9
  8
0
  0
BLOCK
  8
0
  2
*D78
 70
     1
 10
0.0
 20
0.0
 30
0.0
  3
*D78
  1

  0
TEXT
  5
1484
  8
0
  6
BYBLOCK
 62
     0
 10
380.7506602684654
 20
1081.565586216694
 30
0.0
 40
20.0
  1
45.00°
  0
POINT
  5
1485
  8
DEFPOINTS
  6
BYBLOCK
 62
     0
 10
-111.8061450426603
 20
1431.343897080485
 30
0.0
  0
POINT
  5
1486
  8
DEFPOINTS
  6
BYBLOCK
 62
     0
 10
691.8290629240282
 20
784.6282243225845
 30
0.0
  0
POINT
  5
1487
  8
DEFPOINTS
  6
BYBLOCK
 62
     0
 10
959.707465579591
 20
1431.343897080485
 30
0.0
  0
POINT
  5
1488
  8
DEFPOINTS
  6
BYBLOCK
 62
     0
 10
156.0722576129025
 20
784.6282243225844
 30
0.0
  0
SOLID
  5
1489
  8
0
  6
BYBLOCK
 62
     0
 10
788.8978768544805
 20
1018.973071396953
 30
0.0
 11
788.7200941513917
 21
1019.014221250931
 31
0.0
 12
788.743049925822
 22
1019.069656189556
 32
0.0
 13
788.743049925822
 23
1019.069656189556
 33
0.0
  0
SOLID
  5
148A
  8
0
  6
BYBLOCK
 62
     0
 10
59.00344368245035
 20
1018.973071396953
 30
0.0
 11
59.1582706111089
 21
1019.069656189556
 31
0.0
 12
59.18122638553914
 22
1019.014221250931
 32
0.0
 13
59.18122638553914
 23
1019.014221250931
 33
0.0
  0
ARC
  5
148B
  8
0
  6
BYBLOCK
 62
     0
 10
423.9506602684654
 20
137.9125515646837
 30
0.0
 40
953.65303465201
 50
67.51081445762026
 51
87.39822888762107
  0
ARC
  5
148C
  8
0
  6
BYBLOCK
 62
     0
 10
423.9506602684654
 20
137.9125515646837
 30
0.0
 40
953.65303465201
 50
92.60177111237893
 51
112.4891855423797
  0
ENDBLK
  5
18FB
  8
0
  0
BLOCK
  8
0
  2
*D79
 70
     1
 10
0.0
 20
0.0
 30
0.0
  3
*D79
  1

  0
POINT
  5
1490
  8
DEFPOINTS
  6
BYBLOCK
 62
     0
 10
-35.26930908386703
 20
1246.567629687642
 30
0.0
  0
POINT
  5
1491
  8
DEFPOINTS
  6
BYBLOCK
 62
     0
 10
882.9496041035342
 20
1246.034026886234
 30
0.0
  0
LINE
  5
1492
  8
0
  6
BYBLOCK
 62
     0
 10
-35.26930908386703
 20
1246.630129687642
 30
0.0
 11
-35.26930908386703
 21
1320.030934706611
 31
0.0
  0
LINE
  5
1493
  8
0
  6
BYBLOCK
 62
     0
 10
882.9496041035342
 20
1246.096526886234
 30
0.0
 11
882.9496041035342
 21
1320.030934706611
 31
0.0
  0
LINE
  5
1494
  8
0
  6
BYBLOCK
 62
     0
 10
-35.08930908386703
 20
1319.850934706611
 30
0.0
 11
360.3501475098336
 21
1319.850934706611
 31
0.0
  0
LINE
  5
1495
  8
0
  6
BYBLOCK
 62
     0
 10
882.7696041035342
 20
1319.850934706611
 30
0.0
 11
487.3301475098335
 21
1319.850934706611
 31
0.0
  0
SOLID
  5
1496
  8
0
  6
BYBLOCK
 62
     0
 10
-35.26930908386703
 20
1319.850934706611
 30
0.0
 11
-35.08930908386703
 21
1319.820934706611
 31
0.0
 12
-35.08930908386703
 22
1319.880934706611
 32
0.0
 13
-35.08930908386703
 23
1319.880934706611
 33
0.0
  0
SOLID
  5
1497
  8
0
  6
BYBLOCK
 62
     0
 10
882.9496041035342
 20
1319.850934706611
 30
0.0
 11
882.7696041035342
 21
1319.820934706611
 31
0.0
 12
882.7696041035342
 22
1319.880934706611
 32
0.0
 13
882.7696041035342
 23
1319.880934706611
 33
0.0
  0
TEXT
  5
1498
  8
0
  6
BYBLOCK
 62
     0
 10
360.4401475098335
 20
1309.850934706611
 30
0.0
 40
20.0
  1
918.2189
  0
ENDBLK
  5
18FD
  8
0
  0
BLOCK
  8
0
  2
*D80
 70
     1
 10
0.0
 20
0.0
 30
0.0
  3
*D80
  1

  0
POINT
  5
149C
  8
DEFPOINTS
  6
BYBLOCK
 62
     0
 10
691.8290629240282
 20
784.0032243225845
 30
0.0
  0
POINT
  5
149D
  8
DEFPOINTS
  6
BYBLOCK
 62
     0
 10
882.9496041035342
 20
1246.034026886234
 30
0.0
  0
LINE
  5
149E
  8
0
  6
BYBLOCK
 62
     0
 10
691.886816829356
 20
783.9793342321831
 30
0.0
 11
832.8841467512185
 21
725.6553310488251
 31
0.0
  0
LINE
  5
149F
  8
0
  6
BYBLOCK
 62
     0
 10
883.007358008862
 20
1246.010136795832
 30
0.0
 11
1024.004687930724
 21
1187.686133612474
 31
0.0
  0
LINE
  5
14A0
  8
0
  6
BYBLOCK
 62
     0
 10
832.7866189642306
 20
725.8904657565253
 30
0.0
 11
924.1043248426435
 21
946.6495357910056
 31
0.0
  0
LINE
  5
14A1
  8
0
  6
BYBLOCK
 62
     0
 10
1023.769553223024
 20
1187.588605825486
 30
0.0
 11
932.4518473446115
 21
966.8295357910057
 31
0.0
  0
SOLID
  5
14A2
  8
0
  6
BYBLOCK
 62
     0
 10
832.7178155038745
 20
725.7241345091812
 30
0.0
 11
832.8143408387879
 21
725.8789985131326
 31
0.0
 12
832.7588970896732
 22
725.9019329999179
 32
0.0
 13
832.7588970896732
 23
725.9019329999179
 33
0.0
  0
SOLID
  5
14A3
  8
0
  6
BYBLOCK
 62
     0
 10
1023.83835668338
 20
1187.75493707283
 30
0.0
 11
1023.797275097582
 21
1187.577138582093
 31
0.0
 12
1023.741831348467
 22
1187.600073068879
 32
0.0
 13
1023.741831348467
 23
1187.600073068879
 33
0.0
  0
TEXT
  5
14A4
  8
0
  6
BYBLOCK
 62
     0
 10
910.7618096965016
 20
888.2327473596431
 30
0.0
 40
20.0
  1
499.9995
 50
67.52740770910468
  0
ENDBLK
  5
18FF
  8
0
  0
BLOCK
  8
0
  2
*D81
 70
     1
 10
0.0
 20
0.0
 30
0.0
  3
*D81
  1

  0
POINT
  5
14A8
  8
DEFPOINTS
  6
BYBLOCK
 62
     0
 10
156.0722576129025
 20
784.0032243225844
 30
0.0
  0
POINT
  5
14A9
  8
DEFPOINTS
  6
BYBLOCK
 62
     0
 10
-35.26930908386703
 20
1246.567629687642
 30
0.0
  0
LINE
  5
14AA
  8
0
  6
BYBLOCK
 62
     0
 10
156.0145037207604
 20
783.979334200307
 30
0.0
 11
51.77048199318618
 21
740.8583888686304
 31
0.0
  0
LINE
  5
14AB
  8
0
  6
BYBLOCK
 62
     0
 10
-35.32706297600925
 20
1246.543739565364
 30
0.0
 11
-139.5710847035834
 21
1203.422794233688
 31
0.0
  0
LINE
  5
14AC
  8
0
  6
BYBLOCK
 62
     0
 10
51.86800965039693
 20
741.0935236301588
 30
0.0
 11
-39.56020237300024
 21
962.119395103318
 31
0.0
  0
LINE
  5
14AD
  8
0
  6
BYBLOCK
 62
     0
 10
-139.335949942055
 20
1203.325266576477
 30
0.0
 11
-47.90773791865788
 21
982.299395103318
 31
0.0
  0
SOLID
  5
14AE
  8
0
  6
BYBLOCK
 62
     0
 10
51.93681320255572
 20
740.9271924207893
 30
0.0
 11
51.89573151862518
 21
741.104990888852
 31
0.0
 12
51.84028778216867
 22
741.0820563714657
 32
0.0
 13
51.84028778216867
 23
741.0820563714657
 33
0.0
  0
SOLID
  5
14AF
  8
0
  6
BYBLOCK
 62
     0
 10
-139.4047534942138
 20
1203.491597785847
 30
0.0
 11
-139.3082280738268
 21
1203.33673383517
 31
0.0
 12
-139.3636718102833
 22
1203.313799317784
 32
0.0
 13
-139.3636718102833
 23
1203.313799317784
 33
0.0
  0
TEXT
  5
14B0
  8
0
  6
BYBLOCK
 62
     0
 10
-77.13228453544582
 20
1026.787711273133
 30
0.0
 40
20.0
  1
500.5771
 50
292.4726239139999
  0
ENDBLK
  5
1901
  8
0
  0
BLOCK
  8
0
  2
*D82
 70
     1
 10
0.0
 20
0.0
 30
0.0
  3
*D82
  1

  0
POINT
  5
14B4
  8
DEFPOINTS
  6
BYBLOCK
 62
     0
 10
156.0722576129025
 20
784.6282243225844
 30
0.0
  0
POINT
  5
14B5
  8
DEFPOINTS
  6
BYBLOCK
 62
     0
 10
691.8290629240282
 20
784.6282243225845
 30
0.0
  0
LINE
  5
14B6
  8
0
  6
BYBLOCK
 62
     0
 10
156.0722576129025
 20
784.5657243225844
 30
0.0
 11
156.0722576129025
 21
713.7358894143354
 31
0.0
  0
LINE
  5
14B7
  8
0
  6
BYBLOCK
 62
     0
 10
691.8290629240282
 20
784.5657243225845
 30
0.0
 11
691.8290629240282
 21
713.7358894143354
 31
0.0
  0
LINE
  5
14B8
  8
0
  6
BYBLOCK
 62
     0
 10
156.2522576129026
 20
713.9158894143354
 30
0.0
 11
353.8606602684654
 21
713.9158894143354
 31
0.0
  0
LINE
  5
14B9
  8
0
  6
BYBLOCK
 62
     0
 10
691.6490629240282
 20
713.9158894143354
 30
0.0
 11
494.0406602684654
 21
713.9158894143354
 31
0.0
  0
SOLID
  5
14BA
  8
0
  6
BYBLOCK
 62
     0
 10
156.0722576129025
 20
713.9158894143354
 30
0.0
 11
156.2522576129026
 21
713.8858894143355
 31
0.0
 12
156.2522576129026
 22
713.9458894143354
 32
0.0
 13
156.2522576129026
 23
713.9458894143354
 33
0.0
  0
SOLID
  5
14BB
  8
0
  6
BYBLOCK
 62
     0
 10
691.8290629240282
 20
713.9158894143354
 30
0.0
 11
691.6490629240282
 21
713.8858894143355
 31
0.0
 12
691.6490629240282
 22
713.9458894143354
 32
0.0
 13
691.6490629240282
 23
713.9458894143354
 33
0.0
  0
TEXT
  5
14BC
  8
0
  6
BYBLOCK
 62
     0
 10
353.9506602684654
 20
703.9158894143354
 30
0.0
 40
20.0
  1
535.7568
  0
ENDBLK
  5
1903
  8
0
  0
BLOCK
  8
0
  2
*D83
 70
     1
 10
0.0
 20
0.0
 30
0.0
  3
*D83
  1

  0
POINT
  5
14C0
  8
DEFPOINTS
  6
BYBLOCK
 62
     0
 10
691.8290629240282
 20
784.6282243225845
 30
0.0
  0
POINT
  5
14C1
  8
DEFPOINTS
  6
BYBLOCK
 62
     0
 10
768.3657493970461
 20
969.4041308248419
 30
0.0
  0
LINE
  5
14C2
  8
0
  6
BYBLOCK
 62
     0
 10
691.8868053948102
 20
784.6043066080617
 30
0.0
 11
761.6509721707451
 21
755.707042561811
 31
0.0
  0
LINE
  5
14C3
  8
0
  6
BYBLOCK
 62
     0
 10
768.423491867828
 20
969.3802131103191
 30
0.0
 11
838.187658643763
 21
940.4829490640684
 31
0.0
  0
LINE
  5
14C4
  8
0
  6
BYBLOCK
 62
     0
 10
761.5535568727189
 20
755.9422238954887
 30
0.0
 11
795.5736022470576
 21
838.0738788307654
 31
0.0
  0
LINE
  5
14C5
  8
0
  6
BYBLOCK
 62
     0
 10
837.9524773100853
 20
940.385533766042
 30
0.0
 11
803.9324319357465
 21
858.2538788307654
 31
0.0
  0
SOLID
  5
14C6
  8
0
  6
BYBLOCK
 62
     0
 10
761.4846738548931
 20
755.7759255796367
 30
0.0
 11
761.5812732586942
 21
755.9307433925178
 31
0.0
 12
761.5258404867435
 22
755.9537043984596
 32
0.0
 13
761.5258404867435
 23
755.9537043984596
 33
0.0
  0
SOLID
  5
14C7
  8
0
  6
BYBLOCK
 62
     0
 10
838.021360327911
 20
940.5518320818941
 30
0.0
 11
837.9801936960606
 21
940.3740532630711
 31
0.0
 12
837.9247609241099
 22
940.397014269013
 32
0.0
 13
837.9247609241099
 23
940.397014269013
 33
0.0
  0
TEXT
  5
14C8
  8
0
  6
BYBLOCK
 62
     0
 10
786.1073431610826
 20
789.0890484629396
 30
0.0
 40
20.0
  1
200.0000
 50
67.5
  0
ENDBLK
  5
1905
  8
0
  0
BLOCK
  8
0
  2
*D84
 70
     1
 10
0.0
 20
0.0
 30
0.0
  3
*D84
  1

  0
POINT
  5
14CC
  8
DEFPOINTS
  6
BYBLOCK
 62
     0
 10
156.0722576129025
 20
784.6282243225844
 30
0.0
  0
POINT
  5
14CD
  8
DEFPOINTS
  6
BYBLOCK
 62
     0
 10
79.53557113987256
 20
969.4041308248369
 30
0.0
  0
LINE
  5
14CE
  8
0
  6
BYBLOCK
 62
     0
 10
156.0145151421206
 20
784.6043066080616
 30
0.0
 11
103.6058867793128
 21
762.8959419548114
 31
0.0
  0
LINE
  5
14CF
  8
0
  6
BYBLOCK
 62
     0
 10
79.47782866909061
 20
969.3802131103141
 30
0.0
 11
27.06920030628283
 21
947.6718484570638
 31
0.0
  0
LINE
  5
14D0
  8
0
  6
BYBLOCK
 62
     0
 10
103.7033020773391
 20
763.1311232884891
 30
0.0
 11
69.68325670299515
 21
845.2627782237633
 31
0.0
  0
LINE
  5
14D1
  8
0
  6
BYBLOCK
 62
     0
 10
27.30438163996059
 20
947.5744331590375
 30
0.0
 11
61.32442701430456
 21
865.4427782237633
 31
0.0
  0
SOLID
  5
14D2
  8
0
  6
BYBLOCK
 62
     0
 10
103.7721850951649
 20
762.9648249726371
 30
0.0
 11
103.7310184633145
 21
763.14260379146
 31
0.0
 12
103.6755856913638
 22
763.1196427855182
 32
0.0
 13
103.6755856913638
 23
763.1196427855182
 33
0.0
  0
SOLID
  5
14D3
  8
0
  6
BYBLOCK
 62
     0
 10
27.23549862213486
 20
947.7407314748896
 30
0.0
 11
27.33209802593593
 21
947.5859136620085
 31
0.0
 12
27.27666525398524
 22
947.5629526560666
 32
0.0
 13
27.27666525398524
 23
947.5629526560666
 33
0.0
  0
TEXT
  5
14D4
  8
0
  6
BYBLOCK
 62
     0
 10
33.38057727810121
 20
906.7739399442853
 30
0.0
 40
20.0
  1
200.0000
 50
292.5000000000038
  0
ENDBLK
  5
1907
  8
0
  0
BLOCK
  8
0
  2
*D85
 70
     1
 10
0.0
 20
0.0
 30
0.0
  3
*D85
  1

  0
TEXT
  5
14D8
  8
0
  6
BYBLOCK
 62
     0
 10
380.7506602684654
 20
1081.565586216694
 30
0.0
 40
20.0
  1
45.00°
  0
POINT
  5
14D9
  8
DEFPOINTS
  6
BYBLOCK
 62
     0
 10
-111.8061450426603
 20
1431.343897080485
 30
0.0
  0
POINT
  5
14DA
  8
DEFPOINTS
  6
BYBLOCK
 62
     0
 10
691.8290629240282
 20
784.6282243225845
 30
0.0
  0
POINT
  5
14DB
  8
DEFPOINTS
  6
BYBLOCK
 62
     0
 10
959.707465579591
 20
1431.343897080485
 30
0.0
  0
POINT
  5
14DC
  8
DEFPOINTS
  6
BYBLOCK
 62
     0
 10
156.0722576129025
 20
784.6282243225844
 30
0.0
  0
SOLID
  5
14DD
  8
0
  6
BYBLOCK
 62
     0
 10
788.8978768544805
 20
1018.973071396953
 30
0.0
 11
788.7200941513917
 21
1019.014221250931
 31
0.0
 12
788.743049925822
 22
1019.069656189556
 32
0.0
 13
788.743049925822
 23
1019.069656189556
 33
0.0
  0
SOLID
  5
14DE
  8
0
  6
BYBLOCK
 62
     0
 10
59.00344368245035
 20
1018.973071396953
 30
0.0
 11
59.1582706111089
 21
1019.069656189556
 31
0.0
 12
59.18122638553914
 22
1019.014221250931
 32
0.0
 13
59.18122638553914
 23
1019.014221250931
 33
0.0
  0
ARC
  5
14DF
  8
0
  6
BYBLOCK
 62
     0
 10
423.9506602684654
 20
137.9125515646837
 30
0.0
 40
953.65303465201
 50
67.51081445762026
 51
87.39822888762107
  0
ARC
  5
14E0
  8
0
  6
BYBLOCK
 62
     0
 10
423.9506602684654
 20
137.9125515646837
 30
0.0
 40
953.65303465201
 50
92.60177111237893
 51
112.4891855423797
  0
ENDBLK
  5
1909
  8
0
  0
BLOCK
  8
0
  2
*D86
 70
     1
 10
0.0
 20
0.0
 30
0.0
  3
*D86
  1

  0
POINT
  5
14E4
  8
DEFPOINTS
  6
BYBLOCK
 62
     0
 10
156.0722576129025
 20
784.6282243225844
 30
0.0
  0
POINT
  5
14E5
  8
DEFPOINTS
  6
BYBLOCK
 62
     0
 10
691.8290629240282
 20
784.6282243225845
 30
0.0
  0
LINE
  5
14E6
  8
0
  6
BYBLOCK
 62
     0
 10
156.0722576129025
 20
784.5657243225844
 30
0.0
 11
156.0722576129025
 21
713.7358894143354
 31
0.0
  0
LINE
  5
14E7
  8
0
  6
BYBLOCK
 62
     0
 10
691.8290629240282
 20
784.5657243225845
 30
0.0
 11
691.8290629240282
 21
713.7358894143354
 31
0.0
  0
LINE
  5
14E8
  8
0
  6
BYBLOCK
 62
     0
 10
156.2522576129026
 20
713.9158894143354
 30
0.0
 11
353.8606602684654
 21
713.9158894143354
 31
0.0
  0
LINE
  5
14E9
  8
0
  6
BYBLOCK
 62
     0
 10
691.6490629240282
 20
713.9158894143354
 30
0.0
 11
494.0406602684654
 21
713.9158894143354
 31
0.0
  0
SOLID
  5
14EA
  8
0
  6
BYBLOCK
 62
     0
 10
156.0722576129025
 20
713.9158894143354
 30
0.0
 11
156.2522576129026
 21
713.8858894143355
 31
0.0
 12
156.2522576129026
 22
713.9458894143354
 32
0.0
 13
156.2522576129026
 23
713.9458894143354
 33
0.0
  0
SOLID
  5
14EB
  8
0
  6
BYBLOCK
 62
     0
 10
691.8290629240282
 20
713.9158894143354
 30
0.0
 11
691.6490629240282
 21
713.8858894143355
 31
0.0
 12
691.6490629240282
 22
713.9458894143354
 32
0.0
 13
691.6490629240282
 23
713.9458894143354
 33
0.0
  0
TEXT
  5
14EC
  8
0
  6
BYBLOCK
 62
     0
 10
353.9506602684654
 20
703.9158894143354
 30
0.0
 40
20.0
  1
535.7568
  0
ENDBLK
  5
190B
  8
0
  0
BLOCK
  8
0
  2
*D87
 70
     1
 10
0.0
 20
0.0
 30
0.0
  3
*D87
  1

  0
POINT
  5
14F0
  8
DEFPOINTS
  6
BYBLOCK
 62
     0
 10
691.8290629240282
 20
784.6282243225845
 30
0.0
  0
POINT
  5
14F1
  8
DEFPOINTS
  6
BYBLOCK
 62
     0
 10
768.3657493970461
 20
969.4041308248419
 30
0.0
  0
LINE
  5
14F2
  8
0
  6
BYBLOCK
 62
     0
 10
691.8868053948102
 20
784.6043066080617
 30
0.0
 11
761.6509721707451
 21
755.707042561811
 31
0.0
  0
LINE
  5
14F3
  8
0
  6
BYBLOCK
 62
     0
 10
768.423491867828
 20
969.3802131103191
 30
0.0
 11
838.187658643763
 21
940.4829490640684
 31
0.0
  0
LINE
  5
14F4
  8
0
  6
BYBLOCK
 62
     0
 10
761.5535568727189
 20
755.9422238954887
 30
0.0
 11
795.5736022470576
 21
838.0738788307654
 31
0.0
  0
LINE
  5
14F5
  8
0
  6
BYBLOCK
 62
     0
 10
837.9524773100853
 20
940.385533766042
 30
0.0
 11
803.9324319357465
 21
858.2538788307654
 31
0.0
  0
SOLID
  5
14F6
  8
0
  6
BYBLOCK
 62
     0
 10
761.4846738548931
 20
755.7759255796367
 30
0.0
 11
761.5812732586942
 21
755.9307433925178
 31
0.0
 12
761.5258404867435
 22
755.9537043984596
 32
0.0
 13
761.5258404867435
 23
755.9537043984596
 33
0.0
  0
SOLID
  5
14F7
  8
0
  6
BYBLOCK
 62
     0
 10
838.021360327911
 20
940.5518320818941
 30
0.0
 11
837.9801936960606
 21
940.3740532630711
 31
0.0
 12
837.9247609241099
 22
940.397014269013
 32
0.0
 13
837.9247609241099
 23
940.397014269013
 33
0.0
  0
TEXT
  5
14F8
  8
0
  6
BYBLOCK
 62
     0
 10
786.1073431610826
 20
789.0890484629396
 30
0.0
 40
20.0
  1
200.0000
 50
67.5
  0
ENDBLK
  5
190D
  8
0
  0
BLOCK
  8
0
  2
*D88
 70
     1
 10
0.0
 20
0.0
 30
0.0
  3
*D88
  1

  0
POINT
  5
14FC
  8
DEFPOINTS
  6
BYBLOCK
 62
     0
 10
156.0722576129025
 20
784.6282243225844
 30
0.0
  0
POINT
  5
14FD
  8
DEFPOINTS
  6
BYBLOCK
 62
     0
 10
79.53557113987256
 20
969.4041308248369
 30
0.0
  0
LINE
  5
14FE
  8
0
  6
BYBLOCK
 62
     0
 10
156.0145151421206
 20
784.6043066080616
 30
0.0
 11
103.6058867793128
 21
762.8959419548114
 31
0.0
  0
LINE
  5
14FF
  8
0
  6
BYBLOCK
 62
     0
 10
79.47782866909061
 20
969.3802131103141
 30
0.0
 11
27.06920030628283
 21
947.6718484570638
 31
0.0
  0
LINE
  5
1500
  8
0
  6
BYBLOCK
 62
     0
 10
103.7033020773391
 20
763.1311232884891
 30
0.0
 11
69.68325670299515
 21
845.2627782237633
 31
0.0
  0
LINE
  5
1501
  8
0
  6
BYBLOCK
 62
     0
 10
27.30438163996059
 20
947.5744331590375
 30
0.0
 11
61.32442701430456
 21
865.4427782237633
 31
0.0
  0
SOLID
  5
1502
  8
0
  6
BYBLOCK
 62
     0
 10
103.7721850951649
 20
762.9648249726371
 30
0.0
 11
103.7310184633145
 21
763.14260379146
 31
0.0
 12
103.6755856913638
 22
763.1196427855182
 32
0.0
 13
103.6755856913638
 23
763.1196427855182
 33
0.0
  0
SOLID
  5
1503
  8
0
  6
BYBLOCK
 62
     0
 10
27.23549862213486
 20
947.7407314748896
 30
0.0
 11
27.33209802593593
 21
947.5859136620085
 31
0.0
 12
27.27666525398524
 22
947.5629526560666
 32
0.0
 13
27.27666525398524
 23
947.5629526560666
 33
0.0
  0
TEXT
  5
1504
  8
0
  6
BYBLOCK
 62
     0
 10
33.38057727810121
 20
906.7739399442853
 30
0.0
 40
20.0
  1
200.0000
 50
292.5000000000038
  0
ENDBLK
  5
190F
  8
0
  0
BLOCK
  8
0
  2
*D89
 70
     1
 10
0.0
 20
0.0
 30
0.0
  3
*D89
  1

  0
TEXT
  5
1508
  8
0
  6
BYBLOCK
 62
     0
 10
380.7506602684654
 20
1081.565586216694
 30
0.0
 40
20.0
  1
45.00°
  0
POINT
  5
1509
  8
DEFPOINTS
  6
BYBLOCK
 62
     0
 10
-111.8061450426603
 20
1431.343897080485
 30
0.0
  0
POINT
  5
150A
  8
DEFPOINTS
  6
BYBLOCK
 62
     0
 10
691.8290629240282
 20
784.6282243225845
 30
0.0
  0
POINT
  5
150B
  8
DEFPOINTS
  6
BYBLOCK
 62
     0
 10
959.707465579591
 20
1431.343897080485
 30
0.0
  0
POINT
  5
150C
  8
DEFPOINTS
  6
BYBLOCK
 62
     0
 10
156.0722576129025
 20
784.6282243225844
 30
0.0
  0
SOLID
  5
150D
  8
0
  6
BYBLOCK
 62
     0
 10
788.8978768544805
 20
1018.973071396953
 30
0.0
 11
788.7200941513917
 21
1019.014221250931
 31
0.0
 12
788.743049925822
 22
1019.069656189556
 32
0.0
 13
788.743049925822
 23
1019.069656189556
 33
0.0
  0
SOLID
  5
150E
  8
0
  6
BYBLOCK
 62
     0
 10
59.00344368245035
 20
1018.973071396953
 30
0.0
 11
59.1582706111089
 21
1019.069656189556
 31
0.0
 12
59.18122638553914
 22
1019.014221250931
 32
0.0
 13
59.18122638553914
 23
1019.014221250931
 33
0.0
  0
ARC
  5
150F
  8
0
  6
BYBLOCK
 62
     0
 10
423.9506602684654
 20
137.9125515646837
 30
0.0
 40
953.65303465201
 50
67.51081445762026
 51
87.39822888762107
  0
ARC
  5
1510
  8
0
  6
BYBLOCK
 62
     0
 10
423.9506602684654
 20
137.9125515646837
 30
0.0
 40
953.65303465201
 50
92.60177111237893
 51
112.4891855423797
  0
ENDBLK
  5
1911
  8
0
  0
BLOCK
  8
0
  2
*D90
 70
     1
 10
0.0
 20
0.0
 30
0.0
  3
*D90
  1

  0
POINT
  5
1514
  8
DEFPOINTS
  6
BYBLOCK
 62
     0
 10
155.7820655605394
 20
2080.244781565
 30
0.0
  0
POINT
  5
1515
  8
DEFPOINTS
  6
BYBLOCK
 62
     0
 10
415.3207446177038
 20
2253.662982624793
 30
0.0
  0
LINE
  5
1516
  8
0
  6
BYBLOCK
 62
     0
 10
156.1292969561767
 20
2079.725113057311
 30
0.0
 11
205.3528544307199
 21
2006.056853282013
 31
0.0
  0
LINE
  5
1517
  8
0
  6
BYBLOCK
 62
     0
 10
415.667976013341
 20
2253.143314117104
 30
0.0
 11
464.8915334878856
 21
2179.475054341804
 31
0.0
  0
LINE
  5
1518
  8
0
  6
BYBLOCK
 62
     0
 10
206.7370656702018
 20
2008.485115879941
 30
0.0
 11
462.1183966658547
 21
2179.125465774634
 31
0.0
  0
SOLID
  5
1519
  8
0
  6
BYBLOCK
 62
     0
 10
204.6583916394454
 20
2007.096190297392
 30
0.0
 11
206.9685532672933
 21
2008.138670208148
 31
0.0
 12
206.5055780731102
 22
2008.831561551733
 32
0.0
 13
206.5055780731102
 23
2008.831561551733
 33
0.0
  0
SOLID
  5
151A
  8
0
  6
BYBLOCK
 62
     0
 10
464.197070696611
 20
2180.514391357182
 30
0.0
 11
462.3498842629462
 21
2178.779020102841
 31
0.0
 12
461.8869090687631
 22
2179.471911446426
 32
0.0
 13
461.8869090687631
 23
2179.471911446426
 33
0.0
  0
TEXT
  5
151B
  8
0
  6
BYBLOCK
 62
     0
 10
284.9661615726097
 20
2087.114062448642
 30
0.0
 40
20.0
  1
312,14
 50
11.25000000000001
  0
ENDBLK
  5
1913
  8
0
  0
BLOCK
  8
0
  2
*D91
 70
     1
 10
0.0
 20
0.0
 30
0.0
  3
*D91
  1

  0
POINT
  5
151F
  8
DEFPOINTS
  6
BYBLOCK
 62
     0
 10
415.3207446177038
 20
2253.662982624793
 30
0.0
  0
POINT
  5
1520
  8
DEFPOINTS
  6
BYBLOCK
 62
     0
 10
262.2473716716679
 20
2623.214795629307
 30
0.0
  0
LINE
  5
1521
  8
0
  6
BYBLOCK
 62
     0
 10
415.8981693255233
 20
2253.902159770021
 30
0.0
 11
491.9508360537067
 21
2285.404205783475
 31
0.0
  0
LINE
  5
1522
  8
0
  6
BYBLOCK
 62
     0
 10
262.8247963794875
 20
2623.453972774535
 30
0.0
 11
338.8774631076708
 21
2654.95601878799
 31
0.0
  0
LINE
  5
1523
  8
0
  6
BYBLOCK
 62
     0
 10
489.8392780571548
 20
2287.235550324297
 30
0.0
 11
338.6793222729444
 21
2652.167965666255
 31
0.0
  0
SOLID
  5
1524
  8
0
  6
BYBLOCK
 62
     0
 10
490.7959866380676
 20
2284.925851493019
 30
0.0
 11
490.224227862368
 21
2287.395001754449
 31
0.0
 12
489.4543282519417
 22
2287.076098894145
 32
0.0
 13
489.4543282519417
 23
2287.076098894145
 33
0.0
  0
SOLID
  5
1525
  8
0
  6
BYBLOCK
 62
     0
 10
337.7226136920316
 20
2654.477664497534
 30
0.0
 11
339.0642720781575
 21
2652.327417096408
 31
0.0
 12
338.2943724677313
 22
2652.008514236104
 32
0.0
 13
338.2943724677313
 23
2652.008514236104
 33
0.0
  0
TEXT
  5
1526
  8
0
  6
BYBLOCK
 62
     0
 10
429.3377684990382
 20
2448.964569210599
 30
0.0
 40
20.0
  1
400
 50
78.75
  0
ENDBLK
  5
1915
  8
0
  0
BLOCK
  8
0
  2
*D92
 70
     1
 10
0.0
 20
0.0
 30
0.0
  3
*D92
  1

  0
POINT
  5
152A
  8
DEFPOINTS
  6
BYBLOCK
 62
     0
 10
224.4112156620618
 20
2714.559356615763
 30
0.0
  0
POINT
  5
152B
  8
DEFPOINTS
  6
BYBLOCK
 62
     0
 10
-127.060646914081
 20
2363.087494039621
 30
0.0
  0
LINE
  5
152C
  8
0
  6
BYBLOCK
 62
     0
 10
223.9692739238202
 20
2715.001298354005
 30
0.0
 11
173.4582480952978
 21
2765.512324182527
 31
0.0
  0
LINE
  5
152D
  8
0
  6
BYBLOCK
 62
     0
 10
-127.5025886523226
 20
2363.529435777862
 30
0.0
 11
-178.0136144808451
 21
2414.040461606385
 31
0.0
  0
LINE
  5
152E
  8
0
  6
BYBLOCK
 62
     0
 10
172.5743646188146
 20
2762.860673753078
 30
0.0
 11
-175.3619640513955
 21
2414.924345082868
 31
0.0
  0
SOLID
  5
152F
  8
0
  6
BYBLOCK
 62
     0
 10
174.342131571781
 20
2764.628440706044
 30
0.0
 11
172.2797367933202
 21
2763.155301578572
 31
0.0
 12
172.8689924443091
 22
2762.566045927583
 32
0.0
 13
172.8689924443091
 23
2762.566045927583
 33
0.0
  0
SOLID
  5
1530
  8
0
  6
BYBLOCK
 62
     0
 10
-177.1297310043619
 20
2413.156578129901
 30
0.0
 11
-175.65659187689
 21
2415.218972908363
 31
0.0
 12
-175.067336225901
 22
2414.629717257374
 32
0.0
 13
-175.067336225901
 23
2414.629717257374
 33
0.0
  0
TEXT
  5
1531
  8
0
  6
BYBLOCK
 62
     0
 10
-57.52890514184236
 20
2579.712566567943
 30
0.0
 40
20.0
  1
497,06
 50
11.24999999999994
  0
ENDBLK
  5
1917
  8
0
  0
BLOCK
  8
0
  2
*D93
 70
     1
 10
0.0
 20
0.0
 30
0.0
  3
*D93
  1

  0
POINT
  5
1535
  8
DEFPOINTS
  6
BYBLOCK
 62
     0
 10
155.7820655605394
 20
2080.244781565
 30
0.0
  0
POINT
  5
1536
  8
DEFPOINTS
  6
BYBLOCK
 62
     0
 10
-127.060646914081
 20
2363.087494039621
 30
0.0
  0
LINE
  5
1537
  8
0
  6
BYBLOCK
 62
     0
 10
155.3401238222978
 20
2079.802839826758
 30
0.0
 11
106.9609649870609
 21
2031.423680991521
 31
0.0
  0
LINE
  5
1538
  8
0
  6
BYBLOCK
 62
     0
 10
-127.5025886523226
 20
2362.645552301379
 30
0.0
 11
-175.8817474875595
 21
2314.266393466142
 31
0.0
  0
LINE
  5
1539
  8
0
  6
BYBLOCK
 62
     0
 10
106.0770815105778
 20
2034.075331420971
 30
0.0
 11
-173.23009705811
 21
2313.382509989659
 31
0.0
  0
SOLID
  5
153A
  8
0
  6
BYBLOCK
 62
     0
 10
107.8448484635441
 20
2032.307564468005
 30
0.0
 11
106.3717093360722
 21
2034.369959246465
 31
0.0
 12
105.7824536850833
 22
2033.780703595477
 32
0.0
 13
105.7824536850833
 23
2033.780703595477
 33
0.0
  0
SOLID
  5
153B
  8
0
  6
BYBLOCK
 62
     0
 10
-174.9978640110763
 20
2315.150276942625
 30
0.0
 11
-172.9354692326155
 21
2313.677137815153
 31
0.0
 12
-173.5247248836044
 22
2313.087882164165
 32
0.0
 13
-173.5247248836044
 23
2313.087882164165
 33
0.0
  0
TEXT
  5
153C
  8
0
  6
BYBLOCK
 62
     0
 10
-40.41695553066666
 20
2202.143324068656
 30
0.0
 40
20.0
  1
400
 50
281.2499999999999
  0
ENDBLK
  5
1919
  8
0
  0
BLOCK
  8
0
  2
*D94
 70
     1
 10
0.0
 20
0.0
 30
0.0
  3
*D94
  1

  0
TEXT
  5
1540
  8
0
  6
BYBLOCK
 62
     0
 10
378.0995018673412
 20
2327.450048301024
 30
0.0
 40
20.0
  1
101,25°
 50
349.5388393741691
  0
POINT
  5
1541
  8
DEFPOINTS
  6
BYBLOCK
 62
     0
 10
262.2473716716679
 20
2623.214795629307
 30
0.0
  0
POINT
  5
1542
  8
DEFPOINTS
  6
BYBLOCK
 62
     0
 10
155.7820655605301
 20
2080.244781564993
 30
0.0
  0
POINT
  5
1543
  8
DEFPOINTS
  6
BYBLOCK
 62
     0
 10
415.3207446177038
 20
2253.662982624793
 30
0.0
  0
POINT
  5
1544
  8
DEFPOINTS
  6
BYBLOCK
 62
     0
 10
415.3207446177038
 20
2253.662982624793
 30
0.0
  0
SOLID
  5
1545
  8
0
  6
BYBLOCK
 62
     0
 10
386.9629951005446
 20
2322.124646107497
 30
0.0
 11
384.8356854855253
 21
2320.746907049127
 31
0.0
 12
384.5038409052442
 22
2321.511317684181
 32
0.0
 13
384.5038409052442
 23
2321.511317684181
 33
0.0
  0
SOLID
  5
1546
  8
0
  6
BYBLOCK
 62
     0
 10
353.7068752869031
 20
2212.4939113384
 30
0.0
 11
352.002910316604
 21
2214.370108154063
 31
0.0
 12
352.7035127957542
 22
2214.821329397638
 32
0.0
 13
352.7035127957542
 23
2214.821329397638
 33
0.0
  0
ARC
  5
1547
  8
0
  6
BYBLOCK
 62
     0
 10
415.3207446177038
 20
2253.662982624793
 30
0.0
 40
74.10237057272235
 50
114.4330858329248
 51
211.8169141670758
  0
ENDBLK
  5
191B
  8
0
  0
BLOCK
  8
0
  2
*D95
 70
     1
 10
0.0
 20
0.0
 30
0.0
  3
*D95
  1

  0
TEXT
  5
154B
  8
0
  6
BYBLOCK
 62
     0
 10
223.7684634277803
 20
2132.659911051848
 30
0.0
 40
20.0
  1
101,25°
 50
272.0086287195587
  0
POINT
  5
154C
  8
DEFPOINTS
  6
BYBLOCK
 62
     0
 10
415.3207446177038
 20
2253.662982624793
 30
0.0
  0
POINT
  5
154D
  8
DEFPOINTS
  6
BYBLOCK
 62
     0
 10
155.7820655605394
 20
2080.244781565
 30
0.0
  0
POINT
  5
154E
  8
DEFPOINTS
  6
BYBLOCK
 62
     0
 10
-127.060646914081
 20
2363.087494039621
 30
0.0
  0
POINT
  5
154F
  8
DEFPOINTS
  6
BYBLOCK
 62
     0
 10
155.7820655605301
 20
2080.244781564993
 30
0.0
  0
SOLID
  5
1550
  8
0
  6
BYBLOCK
 62
     0
 10
220.7046885804839
 20
2123.624691384615
 30
0.0
 11
218.9399683696666
 21
2125.443859790411
 31
0.0
 12
219.6253592153743
 22
2125.917868053065
 32
0.0
 13
219.6253592153743
 23
2125.917868053065
 33
0.0
  0
SOLID
  5
1551
  8
0
  6
BYBLOCK
 62
     0
 10
100.5699131131491
 20
2135.45693401239
 30
0.0
 11
102.0758800418431
 21
2137.49548122077
 31
0.0
 12
102.6556268700368
 22
2136.896867773173
 32
0.0
 13
102.6556268700368
 23
2136.896867773173
 33
0.0
  0
ARC
  5
1552
  8
0
  6
BYBLOCK
 62
     0
 10
155.7820655605395
 20
2080.244781565
 30
0.0
 40
78.0817747989104
 50
35.58455829706269
 51
133.1654417029376
  0
ENDBLK
  5
191D
  8
0
  0
BLOCK
  8
0
  2
*D96
 70
     1
 10
0.0
 20
0.0
 30
0.0
  3
*D96
  1

  0
TEXT
  5
1556
  8
0
  6
BYBLOCK
 62
     0
 10
329.7317793778092
 20
2468.80345232424
 30
0.0
 40
20.0
  1
22,50°
 50
19.72982914644481
  0
POINT
  5
1557
  8
DEFPOINTS
  6
BYBLOCK
 62
     0
 10
262.2473716716679
 20
2623.214795629307
 30
0.0
  0
POINT
  5
1558
  8
DEFPOINTS
  6
BYBLOCK
 62
     0
 10
155.7820655605394
 20
2080.244781565
 30
0.0
  0
POINT
  5
1559
  8
DEFPOINTS
  6
BYBLOCK
 62
     0
 10
-127.060646914081
 20
2363.087494039621
 30
0.0
  0
POINT
  5
155A
  8
DEFPOINTS
  6
BYBLOCK
 62
     0
 10
415.3207446177038
 20
2253.662982624793
 30
0.0
  0
SOLID
  5
155B
  8
0
  6
BYBLOCK
 62
     0
 10
323.9476664502386
 20
2474.257107172463
 30
0.0
 11
321.7990350865427
 21
2472.912862263953
 31
0.0
 12
321.4792060007394
 22
2473.682377566153
 32
0.0
 13
321.4792060007394
 23
2473.682377566153
 33
0.0
  0
SOLID
  5
155C
  8
0
  6
BYBLOCK
 62
     0
 10
-13.05336792241113
 20
2249.080215047951
 30
0.0
 11
-11.57774808494111
 21
2251.140835635632
 31
0.0
 12
-10.98920193961031
 22
2250.550871332253
 32
0.0
 13
-10.98920193961031
 23
2250.550871332253
 33
0.0
  0
ARC
  5
155D
  8
0
  6
BYBLOCK
 62
     0
 10
721.4674905097756
 20
1514.559356615763
 30
0.0
 40
1038.769359840728
 50
112.6378934428468
 51
134.8621065571531
  0
ENDBLK
  5
191F
  8
0
  0
BLOCK
  8
0
  2
*D97
 70
     1
 10
0.0
 20
0.0
 30
0.0
  3
*D97
  1

  0
POINT
  5
1561
  8
DEFPOINTS
  6
BYBLOCK
 62
     0
 10
224.9886403698814
 20
2714.798533760991
 30
0.0
  0
POINT
  5
1562
  8
DEFPOINTS
  6
BYBLOCK
 62
     0
 10
415.667976013341
 20
2253.143314117103
 30
0.0
  0
LINE
  5
1563
  8
0
  6
BYBLOCK
 62
     0
 10
225.5663056784862
 20
2715.037129216175
 30
0.0
 11
360.7242741636854
 21
2770.861975424039
 31
0.0
  0
LINE
  5
1564
  8
0
  6
BYBLOCK
 62
     0
 10
416.2456413219458
 20
2253.381909572287
 30
0.0
 11
551.4036098071448
 21
2309.206755780151
 31
0.0
  0
LINE
  5
1565
  8
0
  6
BYBLOCK
 62
     0
 10
360.5233253672121
 20
2768.074123279251
 30
0.0
 11
549.2938973691988
 21
2311.040226104202
 31
0.0
  0
SOLID
  5
1566
  8
0
  6
BYBLOCK
 62
     0
 10
359.5689435464757
 20
2770.38478451367
 30
0.0
 11
360.1382151614754
 21
2767.915059642462
 31
0.0
 12
360.9084355729487
 22
2768.233186916041
 32
0.0
 13
360.9084355729487
 23
2768.233186916041
 33
0.0
  0
SOLID
  5
1567
  8
0
  6
BYBLOCK
 62
     0
 10
550.2482791899351
 20
2308.729564869782
 30
0.0
 11
548.9087871634622
 21
2310.881162467412
 31
0.0
 12
549.6790075749354
 22
2311.199289740991
 32
0.0
 13
549.6790075749354
 23
2311.199289740991
 33
0.0
  0
TEXT
  5
1568
  8
0
  6
BYBLOCK
 62
     0
 10
464.3018190423454
 20
2491.938414553434
 30
0.0
 40
20.0
  1
499,48
 50
78.69229301401559
  0
ENDBLK
  5
1921
  8
0
  0
BLOCK
  8
0
  2
*D98
 70
     1
 10
0.0
 20
0.0
 30
0.0
  3
*D98
  1

  0
POINT
  5
156C
  8
DEFPOINTS
  6
BYBLOCK
 62
     0
 10
155.3401238222978
 20
2079.802839826758
 30
0.0
  0
POINT
  5
156D
  8
DEFPOINTS
  6
BYBLOCK
 62
     0
 10
225.5663056784861
 20
2715.037129216175
 30
0.0
  0
LINE
  5
156E
  8
0
  6
BYBLOCK
 62
     0
 10
155.9613392086894
 20
2079.734163457385
 30
0.0
 11
561.2345274649441
 21
2034.930554623112
 31
0.0
  0
LINE
  5
156F
  8
0
  6
BYBLOCK
 62
     0
 10
226.1875210648777
 20
2714.968452846802
 30
0.0
 11
631.4607093211324
 21
2670.164844012529
 31
0.0
  0
LINE
  5
1570
  8
0
  6
BYBLOCK
 62
     0
 10
560.2668021696534
 20
2037.552768907425
 30
0.0
 11
629.9435730708565
 21
2667.817335205709
 31
0.0
  0
SOLID
  5
1571
  8
0
  6
BYBLOCK
 62
     0
 10
559.9920966921608
 20
2035.067907361858
 30
0.0
 11
560.6809457605813
 21
2037.506984661176
 31
0.0
 12
559.8526585787256
 22
2037.598553153674
 32
0.0
 13
559.8526585787256
 23
2037.598553153674
 33
0.0
  0
SOLID
  5
1572
  8
0
  6
BYBLOCK
 62
     0
 10
630.2182785483491
 20
2670.302196751275
 30
0.0
 11
630.3577166617844
 21
2667.77155095946
 31
0.0
 12
629.5294294799287
 22
2667.863119451958
 32
0.0
 13
629.5294294799287
 23
2667.863119451958
 33
0.0
  0
TEXT
  5
1573
  8
0
  6
BYBLOCK
 62
     0
 10
564.5588149493421
 20
2319.383380995443
 30
0.0
 40
20.0
  1
639,1
 50
49.94147555639924
  0
ENDBLK
  5
1923
  8
0
  0
BLOCK
  8
0
  2
*D99
 70
     1
 10
0.0
 20
0.0
 30
0.0
  3
*D99
  1

  0
POINT
  5
1577
  8
DEFPOINTS
  6
BYBLOCK
 62
     0
 10
415.667976013341
 20
2253.143314117103
 30
0.0
  0
POINT
  5
1578
  8
DEFPOINTS
  6
BYBLOCK
 62
     0
 10
-127.060646914081
 20
2363.087494039621
 30
0.0
  0
LINE
  5
1579
  8
0
  6
BYBLOCK
 62
     0
 10
415.5438861275406
 20
2252.530756609401
 30
0.0
 11
349.0085486044413
 21
1924.085611669745
 31
0.0
  0
LINE
  5
157A
  8
0
  6
BYBLOCK
 62
     0
 10
-127.1847367998814
 20
2362.474936531919
 30
0.0
 11
-193.7200743229806
 21
2034.029791592262
 31
0.0
  0
LINE
  5
157B
  8
0
  6
BYBLOCK
 62
     0
 10
346.8064983452343
 20
1925.80708622835
 30
0.0
 11
-191.021664520572
 21
2034.758547064464
 31
0.0
  0
SOLID
  5
157C
  8
0
  6
BYBLOCK
 62
     0
 10
349.2567283760421
 20
1925.310726685149
 30
0.0
 11
346.8892249357679
 21
1926.215457900151
 31
0.0
 12
346.7237717547007
 22
1925.398714556549
 32
0.0
 13
346.7237717547007
 23
1925.398714556549
 33
0.0
  0
SOLID
  5
157D
  8
0
  6
BYBLOCK
 62
     0
 10
-193.4718945513798
 20
2035.254906607666
 30
0.0
 11
-190.9389379300383
 21
2035.166918736266
 31
0.0
 12
-191.1043911111056
 22
2034.350175392663
 32
0.0
 13
-191.1043911111056
 23
2034.350175392663
 33
0.0
  0
TEXT
  5
157E
  8
0
  6
BYBLOCK
 62
     0
 10
38.02142233526388
 20
2023.20013685536
 30
0.0
 40
20.0
  1
553,75
 50
314.7981816614707
  0
ENDBLK
  5
1925
  8
0
  0
BLOCK
  8
0
  2
*D100
 70
     1
 10
0.0
 20
0.0
 30
0.0
  3
*D100
  1

  0
POINT
  5
1582
  8
DEFPOINTS
  6
BYBLOCK
 62
     0
 10
415.5438861275406
 20
2252.530756609402
 30
0.0
  0
POINT
  5
1583
  8
DEFPOINTS
  6
BYBLOCK
 62
     0
 10
224.4112156620618
 20
2714.559356615763
 30
0.0
  0
LINE
  5
1584
  8
0
  6
BYBLOCK
 62
     0
 10
416.0635546352297
 20
2252.877988005039
 30
0.0
 11
801.9688859399756
 21
2510.73168664204
 31
0.0
  0
LINE
  5
1585
  8
0
  6
BYBLOCK
 62
     0
 10
224.9308841697509
 20
2714.9065880114
 30
0.0
 11
529.544820402293
 21
2918.443113014497
 31
0.0
  0
LINE
  5
1586
  8
0
  6
BYBLOCK
 62
     0
 10
799.5406233420484
 20
2512.115897881522
 30
0.0
 11
529.8944089694638
 21
2915.669976192466
 31
0.0
  0
SOLID
  5
1587
  8
0
  6
BYBLOCK
 62
     0
 10
800.9295489245975
 20
2510.037223850765
 30
0.0
 11
799.8870690138413
 21
2512.347385478613
 31
0.0
 12
799.1941776702557
 22
2511.88441028443
 32
0.0
 13
799.1941776702557
 23
2511.88441028443
 33
0.0
  0
SOLID
  5
1588
  8
0
  6
BYBLOCK
 62
     0
 10
528.5054833869148
 20
2917.748650223222
 30
0.0
 11
530.2408546412565
 21
2915.901463789557
 31
0.0
 12
529.547963297671
 22
2915.438488595374
 32
0.0
 13
529.547963297671
 23
2915.438488595374
 33
0.0
  0
TEXT
  5
1589
  8
0
  6
BYBLOCK
 62
     0
 10
683.2653791273851
 20
2670.74034015896
 30
0.0
 40
20.0
  1
490,35
 50
90.0
  0
ENDBLK
  5
1927
  8
0
  0
BLOCK
  8
0
  2
*D101
 70
     1
 10
0.0
 20
0.0
 30
0.0
  3
*D101
  1

  0
POINT
  5
158D
  8
DEFPOINTS
  6
BYBLOCK
 62
     0
 10
223.9692739238203
 20
2715.001298354005
 30
0.0
  0
POINT
  5
158E
  8
DEFPOINTS
  6
BYBLOCK
 62
     0
 10
416.2456413219458
 20
2253.381909572287
 30
0.0
  0
LINE
  5
158F
  8
0
  6
BYBLOCK
 62
     0
 10
223.6220425281831
 20
2715.520966861694
 30
0.0
 11
168.0578358666939
 21
2798.678678749215
 31
0.0
  0
LINE
  5
1590
  8
0
  6
BYBLOCK
 62
     0
 10
415.8984099263085
 20
2253.901578079976
 30
0.0
 11
87.7461571321603
 21
2745.016130643362
 31
0.0
  0
LINE
  5
1591
  8
0
  6
BYBLOCK
 62
     0
 10
166.6736246272121
 20
2796.250416151287
 30
0.0
 11
90.51929395419117
 21
2745.365719210532
 31
0.0
  0
SOLID
  5
1592
  8
0
  6
BYBLOCK
 62
     0
 10
168.7522986579685
 20
2797.639341733836
 30
0.0
 11
166.4421370301206
 21
2796.59686182308
 31
0.0
 12
166.9051122243037
 22
2795.903970479495
 32
0.0
 13
166.9051122243037
 23
2795.903970479495
 33
0.0
  0
SOLID
  5
1593
  8
0
  6
BYBLOCK
 62
     0
 10
88.44061992343481
 20
2743.976793627983
 30
0.0
 11
90.28780635709963
 21
2745.712164882325
 31
0.0
 12
90.75078155128273
 22
2745.01927353874
 32
0.0
 13
90.75078155128273
 23
2745.01927353874
 33
0.0
  0
TEXT
  5
1594
  8
0
  6
BYBLOCK
 62
     0
 10
82.46955964865435
 20
2764.780146397119
 30
0.0
 40
20.0
  1
96,59
 50
11.25000000000001
  0
ENDBLK
  5
1929
  8
0
  0
BLOCK
  8
0
  2
*D102
 70
     1
 10
0.0
 20
0.0
 30
0.0
  3
*D102
  1

  0
POINT
  5
1598
  8
DEFPOINTS
  6
BYBLOCK
 62
     0
 10
155.3401238222978
 20
2079.802839826758
 30
0.0
  0
POINT
  5
1599
  8
DEFPOINTS
  6
BYBLOCK
 62
     0
 10
-127.1847367998815
 20
2362.474936531919
 30
0.0
  0
LINE
  5
159A
  8
0
  6
BYBLOCK
 62
     0
 10
154.8204553146087
 20
2079.455608431121
 30
0.0
 11
35.17392847533372
 21
1999.51035509588
 31
0.0
  0
LINE
  5
159B
  8
0
  6
BYBLOCK
 62
     0
 10
-127.7044053075705
 20
2362.127705136281
 30
0.0
 11
-182.6071924190481
 21
2325.442835626161
 31
0.0
  0
LINE
  5
159C
  8
0
  6
BYBLOCK
 62
     0
 10
34.8243399081629
 20
2002.28349191791
 30
0.0
 11
-180.178929821121
 21
2324.058624386679
 31
0.0
  0
SOLID
  5
159D
  8
0
  6
BYBLOCK
 62
     0
 10
36.2132654907119
 20
2000.204817887154
 30
0.0
 11
35.17078557995568
 21
2002.514979515002
 31
0.0
 12
34.4778942363701
 22
2002.052004320819
 32
0.0
 13
34.4778942363701
 23
2002.052004320819
 33
0.0
  0
SOLID
  5
159E
  8
0
  6
BYBLOCK
 62
     0
 10
-181.56785540367
 20
2326.137298417435
 30
0.0
 11
-179.8324841493282
 21
2324.290111983771
 31
0.0
 12
-180.5253754929137
 22
2323.827136789587
 32
0.0
 13
-180.5253754929137
 23
2323.827136789587
 33
0.0
  0
TEXT
  5
159F
  8
0
  6
BYBLOCK
 62
     0
 10
-53.84293032576443
 20
2142.373991878128
 30
0.0
 40
20.0
  1
392
 50
90.0
  0
ENDBLK
  5
192B
  8
0
  0
BLOCK
  8
0
  2
*D103
 70
     1
 10
0.0
 20
0.0
 30
0.0
  3
*D103
  1

  0
POINT
  5
15A3
  8
DEFPOINTS
  6
BYBLOCK
 62
     0
 10
-127.060646914081
 20
2363.087494039621
 30
0.0
  0
POINT
  5
15A4
  8
DEFPOINTS
  6
BYBLOCK
 62
     0
 10
155.7820655605394
 20
2080.244781565
 30
0.0
  0
LINE
  5
15A5
  8
0
  6
BYBLOCK
 62
     0
 10
-127.4078783097183
 20
2363.60716254731
 30
0.0
 11
-156.2723081645042
 21
2406.805834604036
 31
0.0
  0
LINE
  5
15A6
  8
0
  6
BYBLOCK
 62
     0
 10
155.4348341649022
 20
2080.764450072689
 30
0.0
 11
-91.3876384002125
 21
2450.160384868984
 31
0.0
  0
LINE
  5
15A7
  8
0
  6
BYBLOCK
 62
     0
 10
-153.4991713424733
 20
2407.155423171207
 30
0.0
 11
-92.77184963969437
 21
2447.732122271057
 31
0.0
  0
LINE
  5
15A8
  8
0
  6
BYBLOCK
 62
     0
 10
-90.69317560893799
 20
2449.121047853606
 30
0.0
 11
-20.16207557778631
 21
2496.248422203371
 31
0.0
  0
SOLID
  5
15A9
  8
0
  6
BYBLOCK
 62
     0
 10
-155.5778453732297
 20
2405.766497588658
 30
0.0
 11
-153.2676837453818
 21
2406.808977499414
 31
0.0
 12
-153.7306589395649
 22
2407.501868843
 32
0.0
 13
-153.7306589395649
 23
2407.501868843
 33
0.0
  0
SOLID
  5
15AA
  8
0
  6
BYBLOCK
 62
     0
 10
-90.69317560893799
 20
2449.121047853606
 30
0.0
 11
-92.54036204260281
 21
2447.385676599264
 31
0.0
 12
-93.00333723678591
 22
2448.07856794285
 32
0.0
 13
-93.00333723678591
 23
2448.07856794285
 33
0.0
  0
TEXT
  5
15AB
  8
0
  6
BYBLOCK
 62
     0
 10
-98.84785324334592
 20
2467.682930083399
 30
0.0
 40
20.0
  1
78,04
 50
11.25000000000001
  0
ENDBLK
  5
192D
  8
0
  0
BLOCK
  8
0
  2
*D104
 70
     1
 10
0.0
 20
0.0
 30
0.0
  3
*D104
  1

  0
LINE
  5
15B0
  8
0
  6
BYBLOCK
 62
     0
 10
1240.930723446661
 20
2317.985723902433
 30
0.0
 11
1213.069851179687
 21
2280.438925026711
 31
0.0
  0
LINE
  5
15B1
  8
0
  6
BYBLOCK
 62
     0
 10
1213.069851179687
 20
2280.438925026711
 30
0.0
 11
1231.545889395016
 21
2280.438925026711
 31
0.0
  0
SOLID
  5
15B2
  8
0
  6
BYBLOCK
 62
     0
 10
1241.03798475699
 20
2318.130274970594
 30
0.0
 11
1240.954815291354
 21
2317.967847017378
 31
0.0
 12
1240.906631601967
 22
2318.003600787488
 32
0.0
 13
1240.906631601967
 23
2318.003600787488
 33
0.0
  0
TEXT
  5
15B3
  8
0
  6
BYBLOCK
 62
     0
 10
1231.635889395016
 20
2270.438925026711
 30
0.0
 40
20.0
  1
R1000.0000
  0
POINT
  5
15B4
  8
DEFPOINTS
  6
BYBLOCK
 62
     0
 10
645.1418162605637
 20
1515.06878518836
 30
0.0
  0
POINT
  5
15B5
  8
DEFPOINTS
  6
BYBLOCK
 62
     0
 10
1241.03798475699
 20
2318.130274970594
 30
0.0
  0
ENDBLK
  5
192F
  8
0
  0
BLOCK
  8
0
  2
*D105
 70
     1
 10
0.0
 20
0.0
 30
0.0
  3
*D105
  1

  0
LINE
  5
1633
  8
0
  6
BYBLOCK
 62
     0
 10
683.1091472732666
 20
1606.947309866892
 30
0.0
 11
683.2891472732666
 21
1606.947309866892
 31
0.0
  0
LINE
  5
1634
  8
0
  6
BYBLOCK
 62
     0
 10
683.1991472732666
 20
1607.037309866892
 30
0.0
 11
683.1991472732666
 21
1606.857309866892
 31
0.0
  0
LINE
  5
1635
  8
0
  6
BYBLOCK
 62
     0
 10
871.3384406702654
 20
2487.247053522472
 30
0.0
 11
872.345829630444
 21
2491.960604994866
 31
0.0
  0
LINE
  5
1636
  8
0
  6
BYBLOCK
 62
     0
 10
872.345829630444
 20
2491.960604994866
 30
0.0
 11
872.525829630444
 21
2491.960604994866
 31
0.0
  0
SOLID
  5
1637
  8
0
  6
BYBLOCK
 62
     0
 10
871.3008203356529
 20
2487.071028778689
 30
0.0
 11
871.3677781275625
 21
2487.240783466703
 31
0.0
 12
871.3091032129684
 22
2487.25332357824
 32
0.0
 13
871.3091032129684
 23
2487.25332357824
 33
0.0
  0
TEXT
  5
1638
  8
0
  6
BYBLOCK
 62
     0
 10
872.6158296304441
 20
2481.960604994866
 30
0.0
 40
20.0
  1
R900.0000
  0
POINT
  5
1639
  8
DEFPOINTS
  6
BYBLOCK
 62
     0
 10
683.1991472732666
 20
1606.947309866892
 30
0.0
  0
POINT
  5
163A
  8
DEFPOINTS
  6
BYBLOCK
 62
     0
 10
871.3008203356529
 20
2487.071028778689
 30
0.0
  0
ENDBLK
  5
1931
  8
0
  0
BLOCK
  8
0
  2
*D106
 70
     1
 10
0.0
 20
0.0
 30
0.0
  3
*D106
  1

  0
POINT
  5
163F
  8
DEFPOINTS
  6
BYBLOCK
 62
     0
 10
951.0775499288295
 20
2253.662982624793
 30
0.0
  0
POINT
  5
1640
  8
DEFPOINTS
  6
BYBLOCK
 62
     0
 10
223.9791779209343
 20
2715.60238798985
 30
0.0
  0
LINE
  5
1641
  8
0
  6
BYBLOCK
 62
     0
 10
951.0440344444266
 20
2253.610228835306
 30
0.0
 11
905.0178935415105
 21
2181.164510345736
 31
0.0
  0
LINE
  5
1642
  8
0
  6
BYBLOCK
 62
     0
 10
223.9456624365314
 20
2715.549634200363
 30
0.0
 11
177.9195215336153
 21
2643.103915710793
 31
0.0
  0
LINE
  5
1643
  8
0
  6
BYBLOCK
 62
     0
 10
904.9624872228682
 20
2181.412965854538
 30
0.0
 11
557.4470176836331
 21
2402.196143941987
 31
0.0
  0
LINE
  5
1644
  8
0
  6
BYBLOCK
 62
     0
 10
178.1679770424181
 20
2643.159322029435
 30
0.0
 11
525.6834465816531
 21
2422.376143941987
 31
0.0
  0
SOLID
  5
1645
  8
0
  6
BYBLOCK
 62
     0
 10
905.1144181365908
 20
2181.316441259458
 30
0.0
 11
904.9785746553815
 21
2181.438287673492
 31
0.0
 12
904.9463997903548
 22
2181.387644035585
 32
0.0
 13
904.9463997903548
 23
2181.387644035585
 33
0.0
  0
SOLID
  5
1646
  8
0
  6
BYBLOCK
 62
     0
 10
178.0160461286955
 20
2643.255846624515
 30
0.0
 11
178.1840644749315
 21
2643.184643848389
 31
0.0
 12
178.1518896099047
 22
2643.134000210481
 32
0.0
 13
178.1518896099047
 23
2643.134000210481
 33
0.0
  0
TEXT
  5
1647
  8
0
  6
BYBLOCK
 62
     0
 10
482.773716635731
 20
2437.790020227296
 30
0.0
 40
20.0
  1
861.4291
 50
327.57142959656
  0
ENDBLK
  5
1933
  8
0
  0
BLOCK
  8
0
  2
*D107
 70
     1
 10
0.0
 20
0.0
 30
0.0
  3
*D107
  1

  0
POINT
  5
164C
  8
DEFPOINTS
  6
BYBLOCK
 62
     0
 10
415.3207446177038
 20
2253.662982624793
 30
0.0
  0
POINT
  5
164D
  8
DEFPOINTS
  6
BYBLOCK
 62
     0
 10
1142.198091108336
 20
2715.068785188441
 30
0.0
  0
LINE
  5
164E
  8
0
  6
BYBLOCK
 62
     0
 10
415.3542397648708
 20
2253.610215920175
 30
0.0
 11
450.0223570244841
 21
2198.995668505553
 31
0.0
  0
LINE
  5
164F
  8
0
  6
BYBLOCK
 62
     0
 10
1142.231586255502
 20
2715.016018483823
 30
0.0
 11
1176.899703515116
 21
2660.401471069202
 31
0.0
  0
LINE
  5
1650
  8
0
  6
BYBLOCK
 62
     0
 10
450.0778591099437
 20
2199.244102638695
 30
0.0
 11
797.4692452331933
 21
2419.760537896678
 31
0.0
  0
LINE
  5
1651
  8
0
  6
BYBLOCK
 62
     0
 10
1176.651269381975
 20
2660.456973154662
 30
0.0
 11
829.259883258725
 21
2439.940537896678
 31
0.0
  0
SOLID
  5
1652
  8
0
  6
BYBLOCK
 62
     0
 10
449.9258910006433
 20
2199.147636614854
 30
0.0
 11
450.0939367805839
 21
2199.218774620478
 31
0.0
 12
450.0617814393036
 22
2199.269430656911
 32
0.0
 13
450.0617814393036
 23
2199.269430656911
 33
0.0
  0
SOLID
  5
1653
  8
0
  6
BYBLOCK
 62
     0
 10
1176.803237491275
 20
2660.553439178502
 30
0.0
 11
1176.667347052615
 21
2660.431645136445
 31
0.0
 12
1176.635191711335
 22
2660.482301172878
 32
0.0
 13
1176.635191711335
 23
2660.482301172878
 33
0.0
  0
TEXT
  5
1654
  8
0
  6
BYBLOCK
 62
     0
 10
761.0603329858804
 20
2384.804368333748
 30
0.0
 40
20.0
  1
860.9564
 50
32.40648487811328
  0
ENDBLK
  5
1935
  8
0
  0
BLOCK
  8
0
  2
*D108
 70
     1
 10
0.0
 20
0.0
 30
0.0
  3
*D108
  1

  0
POINT
  5
1659
  8
DEFPOINTS
  6
BYBLOCK
 62
     0
 10
415.6556960893731
 20
2253.13531557861
 30
0.0
  0
POINT
  5
165A
  8
DEFPOINTS
  6
BYBLOCK
 62
     0
 10
223.9791779209343
 20
2715.60238798985
 30
0.0
  0
LINE
  5
165B
  8
0
  6
BYBLOCK
 62
     0
 10
415.7181960893731
 20
2253.13531557861
 30
0.0
 11
612.6039115892456
 21
2253.13531557861
 31
0.0
  0
LINE
  5
165C
  8
0
  6
BYBLOCK
 62
     0
 10
224.0416779209343
 20
2715.60238798985
 30
0.0
 11
612.6039115892456
 21
2715.60238798985
 31
0.0
  0
LINE
  5
165D
  8
0
  6
BYBLOCK
 62
     0
 10
612.4239115892456
 20
2253.31531557861
 30
0.0
 11
612.4239115892456
 21
2474.27885178423
 31
0.0
  0
LINE
  5
165E
  8
0
  6
BYBLOCK
 62
     0
 10
612.4239115892456
 20
2715.42238798985
 30
0.0
 11
612.4239115892456
 21
2494.45885178423
 31
0.0
  0
SOLID
  5
165F
  8
0
  6
BYBLOCK
 62
     0
 10
612.4239115892456
 20
2253.13531557861
 30
0.0
 11
612.4539115892455
 21
2253.31531557861
 31
0.0
 12
612.3939115892456
 22
2253.31531557861
 32
0.0
 13
612.3939115892456
 23
2253.31531557861
 33
0.0
  0
SOLID
  5
1660
  8
0
  6
BYBLOCK
 62
     0
 10
612.4239115892456
 20
2715.60238798985
 30
0.0
 11
612.4539115892455
 21
2715.42238798985
 31
0.0
 12
612.3939115892456
 22
2715.42238798985
 32
0.0
 13
612.3939115892456
 23
2715.42238798985
 33
0.0
  0
TEXT
  5
1661
  8
0
  6
BYBLOCK
 62
     0
 10
622.4239115892456
 20
2417.76885178423
 30
0.0
 40
20.0
  1
462.4671
 50
90.0
  0
ENDBLK
  5
1937
  8
0
  0
BLOCK
  8
0
  2
*D109
 70
     1
 10
0.0
 20
0.0
 30
0.0
  3
*D109
  1

  0
POINT
  5
1666
  8
DEFPOINTS
  6
BYBLOCK
 62
     0
 10
416.2806960893731
 20
2253.13531557861
 30
0.0
  0
POINT
  5
1667
  8
DEFPOINTS
  6
BYBLOCK
 62
     0
 10
224.6041779209343
 20
2715.60238798985
 30
0.0
  0
LINE
  5
1668
  8
0
  6
BYBLOCK
 62
     0
 10
416.2806960893731
 20
2253.19781557861
 30
0.0
 11
416.2806960893731
 21
2526.362626675859
 31
0.0
  0
LINE
  5
1669
  8
0
  6
BYBLOCK
 62
     0
 10
224.6041779209343
 20
2715.53988798985
 30
0.0
 11
224.6041779209343
 21
2526.00262667586
 31
0.0
  0
LINE
  5
166A
  8
0
  6
BYBLOCK
 62
     0
 10
416.1006960893731
 20
2526.182626675859
 30
0.0
 11
383.9324370051537
 21
2526.182626675859
 31
0.0
  0
LINE
  5
166B
  8
0
  6
BYBLOCK
 62
     0
 10
224.7841779209343
 20
2526.182626675859
 30
0.0
 11
256.9524370051537
 21
2526.182626675859
 31
0.0
  0
SOLID
  5
166C
  8
0
  6
BYBLOCK
 62
     0
 10
416.2806960893731
 20
2526.182626675859
 30
0.0
 11
416.1006960893731
 21
2526.21262667586
 31
0.0
 12
416.1006960893731
 22
2526.152626675859
 32
0.0
 13
416.1006960893731
 23
2526.152626675859
 33
0.0
  0
SOLID
  5
166D
  8
0
  6
BYBLOCK
 62
     0
 10
224.6041779209343
 20
2526.182626675859
 30
0.0
 11
224.7841779209343
 21
2526.21262667586
 31
0.0
 12
224.7841779209343
 22
2526.152626675859
 32
0.0
 13
224.7841779209343
 23
2526.152626675859
 33
0.0
  0
TEXT
  5
166E
  8
0
  6
BYBLOCK
 62
     0
 10
257.0424370051537
 20
2516.182626675859
 30
0.0
 40
20.0
  1
191.6765
  0
ENDBLK
  5
1939
  8
0
  0
BLOCK
  8
0
  2
*D110
 70
     1
 10
0.0
 20
0.0
 30
0.0
  3
*D110
  1

  0
POINT
  5
1673
  8
DEFPOINTS
  6
BYBLOCK
 62
     0
 10
951.0775499288295
 20
2253.662982624793
 30
0.0
  0
POINT
  5
1674
  8
DEFPOINTS
  6
BYBLOCK
 62
     0
 10
1142.533042580005
 20
2714.54111814226
 30
0.0
  0
LINE
  5
1675
  8
0
  6
BYBLOCK
 62
     0
 10
951.0775499288295
 20
2253.725482624793
 30
0.0
 11
951.0775499288295
 21
2662.415335181335
 31
0.0
  0
LINE
  5
1676
  8
0
  6
BYBLOCK
 62
     0
 10
1142.533042580005
 20
2714.47861814226
 30
0.0
 11
1142.533042580005
 21
2662.055335181336
 31
0.0
  0
LINE
  5
1677
  8
0
  6
BYBLOCK
 62
     0
 10
951.2575499288295
 20
2662.235335181335
 30
0.0
 11
983.315296254417
 21
2662.235335181335
 31
0.0
  0
LINE
  5
1678
  8
0
  6
BYBLOCK
 62
     0
 10
1142.353042580005
 20
2662.235335181335
 30
0.0
 11
1110.295296254417
 21
2662.235335181335
 31
0.0
  0
SOLID
  5
1679
  8
0
  6
BYBLOCK
 62
     0
 10
951.0775499288295
 20
2662.235335181335
 30
0.0
 11
951.2575499288295
 21
2662.205335181335
 31
0.0
 12
951.2575499288295
 22
2662.265335181336
 32
0.0
 13
951.2575499288295
 23
2662.265335181336
 33
0.0
  0
SOLID
  5
167A
  8
0
  6
BYBLOCK
 62
     0
 10
1142.533042580005
 20
2662.235335181335
 30
0.0
 11
1142.353042580005
 21
2662.205335181335
 31
0.0
 12
1142.353042580005
 22
2662.265335181336
 32
0.0
 13
1142.353042580005
 23
2662.265335181336
 33
0.0
  0
TEXT
  5
167B
  8
0
  6
BYBLOCK
 62
     0
 10
983.4052962544171
 20
2652.235335181335
 30
0.0
 40
20.0
  1
191.4555
  0
ENDBLK
  5
193B
  8
0
  0
BLOCK
  8
0
  2
*D111
 70
     1
 10
0.0
 20
0.0
 30
0.0
  3
*D111
  1

  0
POINT
  5
16B9
  8
DEFPOINTS
  6
BYBLOCK
 62
     0
 10
415.3207446177038
 20
2253.662982624793
 30
0.0
  0
POINT
  5
16BA
  8
DEFPOINTS
  6
BYBLOCK
 62
     0
 10
951.0775499288295
 20
2253.662982624793
 30
0.0
  0
LINE
  5
16BB
  8
0
  6
BYBLOCK
 62
     0
 10
415.3207446177038
 20
2253.600482624793
 30
0.0
 11
415.3207446177038
 21
2182.770647716543
 31
0.0
  0
LINE
  5
16BC
  8
0
  6
BYBLOCK
 62
     0
 10
951.0775499288295
 20
2253.600482624793
 30
0.0
 11
951.0775499288295
 21
2182.770647716543
 31
0.0
  0
LINE
  5
16BD
  8
0
  6
BYBLOCK
 62
     0
 10
415.5007446177038
 20
2182.950647716543
 30
0.0
 11
613.1091472732667
 21
2182.950647716543
 31
0.0
  0
LINE
  5
16BE
  8
0
  6
BYBLOCK
 62
     0
 10
950.8975499288294
 20
2182.950647716543
 30
0.0
 11
753.2891472732667
 21
2182.950647716543
 31
0.0
  0
SOLID
  5
16BF
  8
0
  6
BYBLOCK
 62
     0
 10
415.3207446177038
 20
2182.950647716543
 30
0.0
 11
415.5007446177038
 21
2182.920647716543
 31
0.0
 12
415.5007446177038
 22
2182.980647716543
 32
0.0
 13
415.5007446177038
 23
2182.980647716543
 33
0.0
  0
SOLID
  5
16C0
  8
0
  6
BYBLOCK
 62
     0
 10
951.0775499288295
 20
2182.950647716543
 30
0.0
 11
950.8975499288294
 21
2182.920647716543
 31
0.0
 12
950.8975499288294
 22
2182.980647716543
 32
0.0
 13
950.8975499288294
 23
2182.980647716543
 33
0.0
  0
TEXT
  5
16C1
  8
0
  6
BYBLOCK
 62
     0
 10
613.1991472732666
 20
2172.950647716543
 30
0.0
 40
20.0
  1
535.7568
  0
ENDBLK
  5
193D
  8
0
  0
BLOCK
  8
0
  2
*D112
 70
     1
 10
0.0
 20
0.0
 30
0.0
  3
*D112
  1

  0
POINT
  5
16C6
  8
DEFPOINTS
  6
BYBLOCK
 62
     0
 10
951.0775499288295
 20
2253.662982624793
 30
0.0
  0
POINT
  5
16C7
  8
DEFPOINTS
  6
BYBLOCK
 62
     0
 10
1027.614236401847
 20
2438.43888912705
 30
0.0
  0
LINE
  5
16C8
  8
0
  6
BYBLOCK
 62
     0
 10
951.1352923996114
 20
2253.63906491027
 30
0.0
 11
1020.899459175546
 21
2224.741800864019
 31
0.0
  0
LINE
  5
16C9
  8
0
  6
BYBLOCK
 62
     0
 10
1027.671978872629
 20
2438.414971412527
 30
0.0
 11
1097.436145648564
 21
2409.517707366277
 31
0.0
  0
LINE
  5
16CA
  8
0
  6
BYBLOCK
 62
     0
 10
1020.80204387752
 20
2224.976982197697
 30
0.0
 11
1054.822089251859
 21
2307.108637132973
 31
0.0
  0
LINE
  5
16CB
  8
0
  6
BYBLOCK
 62
     0
 10
1097.200964314887
 20
2409.42029206825
 30
0.0
 11
1063.180918940548
 21
2327.288637132974
 31
0.0
  0
SOLID
  5
16CC
  8
0
  6
BYBLOCK
 62
     0
 10
1020.733160859694
 20
2224.810683881845
 30
0.0
 11
1020.829760263495
 21
2224.965501694726
 31
0.0
 12
1020.774327491545
 22
2224.988462700668
 32
0.0
 13
1020.774327491545
 23
2224.988462700668
 33
0.0
  0
SOLID
  5
16CD
  8
0
  6
BYBLOCK
 62
     0
 10
1097.269847332712
 20
2409.586590384102
 30
0.0
 11
1097.228680700862
 21
2409.408811565279
 31
0.0
 12
1097.173247928911
 22
2409.431772571221
 32
0.0
 13
1097.173247928911
 23
2409.431772571221
 33
0.0
  0
TEXT
  5
16CE
  8
0
  6
BYBLOCK
 62
     0
 10
1045.355830165884
 20
2258.123806765147
 30
0.0
 40
20.0
  1
200.0000
 50
67.5
  0
ENDBLK
  5
193F
  8
0
  0
BLOCK
  8
0
  2
*D113
 70
     1
 10
0.0
 20
0.0
 30
0.0
  3
*D113
  1

  0
POINT
  5
16D3
  8
DEFPOINTS
  6
BYBLOCK
 62
     0
 10
415.3207446177038
 20
2253.662982624793
 30
0.0
  0
POINT
  5
16D4
  8
DEFPOINTS
  6
BYBLOCK
 62
     0
 10
338.7840581446738
 20
2438.438889127045
 30
0.0
  0
LINE
  5
16D5
  8
0
  6
BYBLOCK
 62
     0
 10
415.2630021469219
 20
2253.63906491027
 30
0.0
 11
362.854373784114
 21
2231.930700257019
 31
0.0
  0
LINE
  5
16D6
  8
0
  6
BYBLOCK
 62
     0
 10
338.7263156738919
 20
2438.414971412522
 30
0.0
 11
286.317687311084
 21
2416.706606759272
 31
0.0
  0
LINE
  5
16D7
  8
0
  6
BYBLOCK
 62
     0
 10
362.9517890821403
 20
2232.165881590697
 30
0.0
 11
328.9317437077963
 21
2314.297536525971
 31
0.0
  0
LINE
  5
16D8
  8
0
  6
BYBLOCK
 62
     0
 10
286.5528686447618
 20
2416.609191461246
 30
0.0
 11
320.5729140191057
 21
2334.477536525972
 31
0.0
  0
SOLID
  5
16D9
  8
0
  6
BYBLOCK
 62
     0
 10
363.020672099966
 20
2231.999583274845
 30
0.0
 11
362.9795054681157
 21
2232.177362093668
 31
0.0
 12
362.924072696165
 22
2232.154401087726
 32
0.0
 13
362.924072696165
 23
2232.154401087726
 33
0.0
  0
SOLID
  5
16DA
  8
0
  6
BYBLOCK
 62
     0
 10
286.483985626936
 20
2416.775489777098
 30
0.0
 11
286.5805850307371
 21
2416.620671964216
 31
0.0
 12
286.5251522587864
 22
2416.597710958275
 32
0.0
 13
286.5251522587864
 23
2416.597710958275
 33
0.0
  0
TEXT
  5
16DB
  8
0
  6
BYBLOCK
 62
     0
 10
292.6290642829026
 20
2375.808698246494
 30
0.0
 40
20.0
  1
200.0000
 50
292.5000000000038
  0
ENDBLK
  5
1941
  8
0
  0
BLOCK
  8
0
  2
*D114
 70
     1
 10
0.0
 20
0.0
 30
0.0
  3
*D114
  1

  0
TEXT
  5
16E0
  8
0
  6
BYBLOCK
 62
     0
 10
639.9991472732667
 20
2550.600344518902
 30
0.0
 40
20.0
  1
45.00°
  0
POINT
  5
16E1
  8
DEFPOINTS
  6
BYBLOCK
 62
     0
 10
147.442341962141
 20
2900.378655382693
 30
0.0
  0
POINT
  5
16E2
  8
DEFPOINTS
  6
BYBLOCK
 62
     0
 10
951.0775499288295
 20
2253.662982624793
 30
0.0
  0
POINT
  5
16E3
  8
DEFPOINTS
  6
BYBLOCK
 62
     0
 10
1218.955952584392
 20
2900.378655382693
 30
0.0
  0
POINT
  5
16E4
  8
DEFPOINTS
  6
BYBLOCK
 62
     0
 10
415.3207446177038
 20
2253.662982624793
 30
0.0
  0
SOLID
  5
16E5
  8
0
  6
BYBLOCK
 62
     0
 10
1048.146363859282
 20
2488.007829699161
 30
0.0
 11
1047.968581156193
 21
2488.048979553139
 31
0.0
 12
1047.991536930623
 22
2488.104414491764
 32
0.0
 13
1047.991536930623
 23
2488.104414491764
 33
0.0
  0
SOLID
  5
16E6
  8
0
  6
BYBLOCK
 62
     0
 10
318.2519306872516
 20
2488.007829699161
 30
0.0
 11
318.4067576159102
 21
2488.104414491764
 31
0.0
 12
318.4297133903404
 22
2488.048979553139
 32
0.0
 13
318.4297133903404
 23
2488.048979553139
 33
0.0
  0
ARC
  5
16E7
  8
0
  6
BYBLOCK
 62
     0
 10
683.1991472732666
 20
1606.947309866892
 30
0.0
 40
953.6530346520094
 50
67.51081445762024
 51
87.39822888762107
  0
ARC
  5
16E8
  8
0
  6
BYBLOCK
 62
     0
 10
683.1991472732666
 20
1606.947309866892
 30
0.0
 40
953.6530346520094
 50
92.60177111237891
 51
112.4891855423798
  0
ENDBLK
  5
1943
  8
0
  0
BLOCK
  8
0
  2
*D115
 70
     1
 10
0.0
 20
0.0
 30
0.0
  3
*D115
  1

  0
POINT
  5
16EE
  8
DEFPOINTS
  6
BYBLOCK
 62
     0
 10
223.9791779209343
 20
2715.60238798985
 30
0.0
  0
POINT
  5
16EF
  8
DEFPOINTS
  6
BYBLOCK
 62
     0
 10
1142.198091108336
 20
2715.068785188441
 30
0.0
  0
LINE
  5
16F0
  8
0
  6
BYBLOCK
 62
     0
 10
223.9791779209343
 20
2715.66488798985
 30
0.0
 11
223.9791779209343
 21
2789.065693008819
 31
0.0
  0
LINE
  5
16F1
  8
0
  6
BYBLOCK
 62
     0
 10
1142.198091108336
 20
2715.131285188441
 30
0.0
 11
1142.198091108336
 21
2789.065693008819
 31
0.0
  0
LINE
  5
16F2
  8
0
  6
BYBLOCK
 62
     0
 10
224.1591779209343
 20
2788.88569300882
 30
0.0
 11
619.5986345146349
 21
2788.88569300882
 31
0.0
  0
LINE
  5
16F3
  8
0
  6
BYBLOCK
 62
     0
 10
1142.018091108336
 20
2788.88569300882
 30
0.0
 11
746.5786345146349
 21
2788.88569300882
 31
0.0
  0
SOLID
  5
16F4
  8
0
  6
BYBLOCK
 62
     0
 10
223.9791779209343
 20
2788.88569300882
 30
0.0
 11
224.1591779209343
 21
2788.855693008819
 31
0.0
 12
224.1591779209343
 22
2788.91569300882
 32
0.0
 13
224.1591779209343
 23
2788.91569300882
 33
0.0
  0
SOLID
  5
16F5
  8
0
  6
BYBLOCK
 62
     0
 10
1142.198091108336
 20
2788.88569300882
 30
0.0
 11
1142.018091108336
 21
2788.855693008819
 31
0.0
 12
1142.018091108336
 22
2788.91569300882
 32
0.0
 13
1142.018091108336
 23
2788.91569300882
 33
0.0
  0
TEXT
  5
16F6
  8
0
  6
BYBLOCK
 62
     0
 10
619.6886345146349
 20
2778.88569300882
 30
0.0
 40
20.0
  1
918.2189
  0
ENDBLK
  5
1945
  8
0
  0
BLOCK
  8
0
  2
*D116
 70
     1
 10
0.0
 20
0.0
 30
0.0
  3
*D116
  1

  0
POINT
  5
16FB
  8
DEFPOINTS
  6
BYBLOCK
 62
     0
 10
951.0775499288295
 20
2253.037982624793
 30
0.0
  0
POINT
  5
16FC
  8
DEFPOINTS
  6
BYBLOCK
 62
     0
 10
1142.198091108336
 20
2715.068785188441
 30
0.0
  0
LINE
  5
16FD
  8
0
  6
BYBLOCK
 62
     0
 10
951.1353038341573
 20
2253.014092534391
 30
0.0
 11
1092.13263375602
 21
2194.690089351033
 31
0.0
  0
LINE
  5
16FE
  8
0
  6
BYBLOCK
 62
     0
 10
1142.255845013663
 20
2715.04489509804
 30
0.0
 11
1283.253174935526
 21
2656.720891914682
 31
0.0
  0
LINE
  5
16FF
  8
0
  6
BYBLOCK
 62
     0
 10
1092.035105969032
 20
2194.925224058733
 30
0.0
 11
1183.352811847445
 21
2415.684294093214
 31
0.0
  0
LINE
  5
1700
  8
0
  6
BYBLOCK
 62
     0
 10
1283.018040227826
 20
2656.623364127694
 30
0.0
 11
1191.700334349413
 21
2435.864294093214
 31
0.0
  0
SOLID
  5
1701
  8
0
  6
BYBLOCK
 62
     0
 10
1091.966302508675
 20
2194.758892811389
 30
0.0
 11
1092.062827843589
 21
2194.913756815341
 31
0.0
 12
1092.007384094474
 22
2194.936691302126
 32
0.0
 13
1092.007384094474
 23
2194.936691302126
 33
0.0
  0
SOLID
  5
1702
  8
0
  6
BYBLOCK
 62
     0
 10
1283.086843688182
 20
2656.789695375038
 30
0.0
 11
1283.045762102383
 21
2656.611896884301
 31
0.0
 12
1282.990318353268
 22
2656.634831371086
 32
0.0
 13
1282.990318353268
 23
2656.634831371086
 33
0.0
  0
TEXT
  5
1703
  8
0
  6
BYBLOCK
 62
     0
 10
1170.010296701302
 20
2357.267505661851
 30
0.0
 40
20.0
  1
499.9995
 50
67.52740770910468
  0
ENDBLK
  5
1947
  8
0
  0
BLOCK
  8
0
  2
*D117
 70
     1
 10
0.0
 20
0.0
 30
0.0
  3
*D117
  1

  0
POINT
  5
1708
  8
DEFPOINTS
  6
BYBLOCK
 62
     0
 10
415.3207446177038
 20
2253.037982624793
 30
0.0
  0
POINT
  5
1709
  8
DEFPOINTS
  6
BYBLOCK
 62
     0
 10
223.9791779209343
 20
2715.60238798985
 30
0.0
  0
LINE
  5
170A
  8
0
  6
BYBLOCK
 62
     0
 10
415.2629907255616
 20
2253.014092502515
 30
0.0
 11
311.0189689979876
 21
2209.893147170839
 31
0.0
  0
LINE
  5
170B
  8
0
  6
BYBLOCK
 62
     0
 10
223.921424028792
 20
2715.578497867572
 30
0.0
 11
119.677402301218
 21
2672.457552535896
 31
0.0
  0
LINE
  5
170C
  8
0
  6
BYBLOCK
 62
     0
 10
311.1164966551983
 20
2210.128281932367
 30
0.0
 11
219.6882846318012
 21
2431.154153405526
 31
0.0
  0
LINE
  5
170D
  8
0
  6
BYBLOCK
 62
     0
 10
119.9125370627464
 20
2672.360024878685
 30
0.0
 11
211.3407490861435
 21
2451.334153405526
 31
0.0
  0
SOLID
  5
170E
  8
0
  6
BYBLOCK
 62
     0
 10
311.1853002073571
 20
2209.961950722998
 30
0.0
 11
311.1442185234266
 21
2210.13974919106
 31
0.0
 12
311.0887747869701
 22
2210.116814673674
 32
0.0
 13
311.0887747869701
 23
2210.116814673674
 33
0.0
  0
SOLID
  5
170F
  8
0
  6
BYBLOCK
 62
     0
 10
119.8437335105876
 20
2672.526356088055
 30
0.0
 11
119.9402589309746
 21
2672.371492137378
 31
0.0
 12
119.8848151945181
 22
2672.348557619992
 32
0.0
 13
119.8848151945181
 23
2672.348557619992
 33
0.0
  0
TEXT
  5
1710
  8
0
  6
BYBLOCK
 62
     0
 10
182.1162024693558
 20
2495.822469575341
 30
0.0
 40
20.0
  1
500.5771
 50
292.4726239139999
  0
ENDBLK
  5
1949
  8
0
  0
BLOCK
  8
0
  2
*D118
 70
     1
 10
0.0
 20
0.0
 30
0.0
  3
*D118
  1

  0
POINT
  5
1780
  8
DEFPOINTS
  6
BYBLOCK
 62
     0
 10
951.2885621527832
 20
2254.172411197329
 30
0.0
  0
POINT
  5
1781
  8
DEFPOINTS
  6
BYBLOCK
 62
     0
 10
1210.827241209913
 20
2080.754210137485
 30
0.0
  0
LINE
  5
1782
  8
0
  6
BYBLOCK
 62
     0
 10
951.2538390132195
 20
2254.120444346559
 30
0.0
 11
897.4097741295082
 21
2173.537106556299
 31
0.0
  0
LINE
  5
1783
  8
0
  6
BYBLOCK
 62
     0
 10
1210.79251807035
 20
2080.702243286716
 30
0.0
 11
1156.948453186638
 21
2000.118905496455
 31
0.0
  0
LINE
  5
1784
  8
0
  6
BYBLOCK
 62
     0
 10
897.6594413016661
 20
2173.586768444569
 30
0.0
 11
974.4891106149353
 21
2122.250824651016
 31
0.0
  0
LINE
  5
1785
  8
0
  6
BYBLOCK
 62
     0
 10
1156.898791298367
 20
2000.368572668612
 30
0.0
 11
1080.069121985098
 21
2051.704516462165
 31
0.0
  0
SOLID
  5
1786
  8
0
  6
BYBLOCK
 62
     0
 10
897.5097767714517
 20
2173.686771086513
 30
0.0
 11
897.6427741946756
 21
2173.5618243562
 31
0.0
 12
897.6761084086568
 22
2173.611712532938
 32
0.0
 13
897.6761084086568
 23
2173.611712532938
 33
0.0
  0
SOLID
  5
1787
  8
0
  6
BYBLOCK
 62
     0
 10
1157.048455828582
 20
2000.268570026669
 30
0.0
 11
1156.882124191377
 21
2000.343628580243
 31
0.0
 12
1156.915458405358
 22
2000.393516756982
 32
0.0
 13
1156.915458405358
 23
2000.393516756982
 33
0.0
  0
TEXT
  5
1788
  8
0
  6
BYBLOCK
 62
     0
 10
963.8791163000168
 20
2076.977670556591
 30
0.0
 40
20.0
  1
312.1445
  0
ENDBLK
  5
194B
  8
0
  0
BLOCK
  8
0
  2
*D119
 70
     1
 10
0.0
 20
0.0
 30
0.0
  3
*D119
  1

  0
POINT
  5
178D
  8
DEFPOINTS
  6
BYBLOCK
 62
     0
 10
1210.827241209913
 20
2080.754210137485
 30
0.0
  0
POINT
  5
178E
  8
DEFPOINTS
  6
BYBLOCK
 62
     0
 10
1493.669953684589
 20
2363.59692261205
 30
0.0
  0
LINE
  5
178F
  8
0
  6
BYBLOCK
 62
     0
 10
1210.871435383737
 20
2080.710015963661
 30
0.0
 11
1297.871385507899
 21
1993.710065839465
 31
0.0
  0
LINE
  5
1790
  8
0
  6
BYBLOCK
 62
     0
 10
1493.714147858414
 20
2363.552728438226
 30
0.0
 11
1580.714097982575
 21
2276.55277831403
 31
0.0
  0
LINE
  5
1791
  8
0
  6
BYBLOCK
 62
     0
 10
1297.871385507899
 20
1993.964624280692
 30
0.0
 11
1431.890977920572
 21
2127.984216693312
 31
0.0
  0
LINE
  5
1792
  8
0
  6
BYBLOCK
 62
     0
 10
1580.459539541348
 20
2276.55277831403
 30
0.0
 11
1446.439947128675
 21
2142.53318590141
 31
0.0
  0
SOLID
  5
1793
  8
0
  6
BYBLOCK
 62
     0
 10
1297.744106287285
 20
1993.837345060078
 30
0.0
 11
1297.892598711335
 21
1993.943411077257
 31
0.0
 12
1297.850172304464
 22
1993.985837484128
 32
0.0
 13
1297.850172304464
 23
1993.985837484128
 33
0.0
  0
SOLID
  5
1794
  8
0
  6
BYBLOCK
 62
     0
 10
1580.586818761961
 20
2276.680057534643
 30
0.0
 11
1580.480752744784
 21
2276.531565110594
 31
0.0
 12
1580.438326337912
 22
2276.573991517465
 32
0.0
 13
1580.438326337912
 23
2276.573991517465
 33
0.0
  0
TEXT
  5
1795
  8
0
  6
BYBLOCK
 62
     0
 10
1437.306914072091
 20
2074.656838309087
 30
0.0
 40
20.0
  1
400.0000
 50
78.75
  0
ENDBLK
  5
194D
  8
0
  0
BLOCK
  8
0
  2
*D120
 70
     1
 10
0.0
 20
0.0
 30
0.0
  3
*D120
  1

  0
POINT
  5
179A
  8
DEFPOINTS
  6
BYBLOCK
 62
     0
 10
951.2885621527832
 20
2254.172411197329
 30
0.0
  0
POINT
  5
179B
  8
DEFPOINTS
  6
BYBLOCK
 62
     0
 10
1104.361935098892
 20
2623.724224201813
 30
0.0
  0
LINE
  5
179C
  8
0
  6
BYBLOCK
 62
     0
 10
951.2308196820013
 20
2254.196328911851
 30
0.0
 11
905.0642660701178
 21
2273.319141545929
 31
0.0
  0
LINE
  5
179D
  8
0
  6
BYBLOCK
 62
     0
 10
1104.30419262811
 20
2623.748141916335
 30
0.0
 11
1058.137639016226
 21
2642.870954550413
 31
0.0
  0
LINE
  5
179E
  8
0
  6
BYBLOCK
 62
     0
 10
905.2994474037956
 20
2273.416556843955
 30
0.0
 11
977.8303281607367
 21
2448.521592858131
 31
0.0
  0
LINE
  5
179F
  8
0
  6
BYBLOCK
 62
     0
 10
1058.235054314252
 20
2642.635773216735
 30
0.0
 11
985.7041735573114
 21
2467.53073720256
 31
0.0
  0
SOLID
  5
17A0
  8
0
  6
BYBLOCK
 62
     0
 10
905.2305643859698
 20
2273.250258528103
 30
0.0
 11
905.3271637897709
 21
2273.405076340984
 31
0.0
 12
905.2717310178202
 22
2273.428037346926
 32
0.0
 13
905.2717310178202
 23
2273.428037346926
 33
0.0
  0
SOLID
  5
17A1
  8
0
  6
BYBLOCK
 62
     0
 10
1058.303937332078
 20
2642.802071532587
 30
0.0
 11
1058.262770700228
 21
2642.624292713764
 31
0.0
 12
1058.207337928277
 22
2642.647253719706
 32
0.0
 13
1058.207337928277
 23
2642.647253719706
 33
0.0
  0
TEXT
  5
17A2
  8
0
  6
BYBLOCK
 62
     0
 10
960.2929967984273
 20
2514.726221578297
 30
0.0
 40
20.0
  1
400.0000
 50
281.2499999999999
  0
ENDBLK
  5
194F
  8
0
  0
BLOCK
  8
0
  2
*D121
 70
     1
 10
0.0
 20
0.0
 30
0.0
  3
*D121
  1

  0
POINT
  5
17A7
  8
DEFPOINTS
  6
BYBLOCK
 62
     0
 10
950.9413307571458
 20
2253.652742689639
 30
0.0
  0
POINT
  5
17A8
  8
DEFPOINTS
  6
BYBLOCK
 62
     0
 10
1142.198091108516
 20
2715.068785188261
 30
0.0
  0
LINE
  5
17A9
  8
0
  6
BYBLOCK
 62
     0
 10
950.8835941267573
 20
2253.676674499253
 30
0.0
 11
853.8340808914564
 21
2293.903657927373
 31
0.0
  0
LINE
  5
17AA
  8
0
  6
BYBLOCK
 62
     0
 10
1142.140354478127
 20
2715.092716997875
 30
0.0
 11
1045.090841242826
 21
2755.319700425996
 31
0.0
  0
LINE
  5
17AB
  8
0
  6
BYBLOCK
 62
     0
 10
854.0692859986624
 20
2294.001015811205
 30
0.0
 11
945.6896909261266
 21
2515.03960590384
 31
0.0
  0
LINE
  5
17AC
  8
0
  6
BYBLOCK
 62
     0
 10
1045.188199126658
 20
2755.084495318789
 30
0.0
 11
953.5677941991938
 21
2534.045905226154
 31
0.0
  0
SOLID
  5
17AD
  8
0
  6
BYBLOCK
 62
     0
 10
854.0003623869753
 20
2293.834734315686
 30
0.0
 11
854.0969995812488
 21
2293.989528542591
 31
0.0
 12
854.0415724160758
 22
2294.012503079819
 32
0.0
 13
854.0415724160758
 23
2294.012503079819
 33
0.0
  0
SOLID
  5
17AE
  8
0
  6
BYBLOCK
 62
     0
 10
1045.257122738345
 20
2755.250776814308
 30
0.0
 11
1045.215912709245
 21
2755.073008050175
 31
0.0
 12
1045.160485544072
 22
2755.095982587404
 32
0.0
 13
1045.160485544072
 23
2755.095982587404
 33
0.0
  0
TEXT
  5
17AF
  8
0
  6
BYBLOCK
 62
     0
 10
926.1808513799447
 20
2591.252547942755
 30
0.0
 40
20.0
  1
499.4836
 50
281.2360132405296
  0
ENDBLK
  5
1951
  8
0
  0
BLOCK
  8
0
  2
*D122
 70
     1
 10
0.0
 20
0.0
 30
0.0
  3
*D122
  1

  0
TEXT
  5
17B4
  8
0
  6
BYBLOCK
 62
     0
 10
975.0494428660487
 20
2266.031840379506
 30
0.0
 40
20.0
  1
101.25°
  0
POINT
  5
17B5
  8
DEFPOINTS
  6
BYBLOCK
 62
     0
 10
1104.361935098892
 20
2623.724224201813
 30
0.0
  0
POINT
  5
17B6
  8
DEFPOINTS
  6
BYBLOCK
 62
     0
 10
1210.827241209923
 20
2080.754210137478
 30
0.0
  0
POINT
  5
17B7
  8
DEFPOINTS
  6
BYBLOCK
 62
     0
 10
951.2885621527832
 20
2254.172411197329
 30
0.0
  0
POINT
  5
17B8
  8
DEFPOINTS
  6
BYBLOCK
 62
     0
 10
951.2885621527832
 20
2254.172411197329
 30
0.0
  0
SOLID
  5
17B9
  8
0
  6
BYBLOCK
 62
     0
 10
1013.901068190562
 20
2212.336072196273
 30
0.0
 11
1013.975927896806
 21
2212.502493422026
 31
0.0
 12
1014.025855877794
 22
2212.469218856446
 32
0.0
 13
1014.025855877794
 23
2212.469218856446
 33
0.0
  0
SOLID
  5
17BA
  8
0
  6
BYBLOCK
 62
     0
 10
980.1059336658303
 20
2323.743700336032
 30
0.0
 11
980.2836631567714
 21
2323.702321258592
 31
0.0
 12
980.2606359159289
 22
2323.646915968418
 32
0.0
 13
980.2606359159289
 23
2323.646915968418
 33
0.0
  0
ARC
  5
17BB
  8
0
  6
BYBLOCK
 62
     0
 10
951.2885621527832
 20
2254.172411197329
 30
0.0
 40
75.30342072802614
 50
326.3869558337063
 51
8.991818087288516
  0
ARC
  5
17BC
  8
0
  6
BYBLOCK
 62
     0
 10
951.2885621527832
 20
2254.172411197329
 30
0.0
 40
75.30342072802614
 50
25.10484101649612
 51
67.36304416627073
  0
ENDBLK
  5
1953
  8
0
  0
BLOCK
  8
0
  2
*D123
 70
     1
 10
0.0
 20
0.0
 30
0.0
  3
*D123
  1

  0
TEXT
  5
17C1
  8
0
  6
BYBLOCK
 62
     0
 10
1155.186400683164
 20
2145.287014793984
 30
0.0
 40
20.0
  1
101.25°
  0
POINT
  5
17C2
  8
DEFPOINTS
  6
BYBLOCK
 62
     0
 10
951.2885621527832
 20
2254.172411197329
 30
0.0
  0
POINT
  5
17C3
  8
DEFPOINTS
  6
BYBLOCK
 62
     0
 10
1210.827241209913
 20
2080.754210137485
 30
0.0
  0
POINT
  5
17C4
  8
DEFPOINTS
  6
BYBLOCK
 62
     0
 10
1493.669953684589
 20
2363.59692261205
 30
0.0
  0
POINT
  5
17C5
  8
DEFPOINTS
  6
BYBLOCK
 62
     0
 10
1210.827241209923
 20
2080.754210137478
 30
0.0
  0
SOLID
  5
17C6
  8
0
  6
BYBLOCK
 62
     0
 10
1263.784898397544
 20
2133.711867325095
 30
0.0
 11
1263.636278620393
 21
2133.817754821238
 31
0.0
 12
1263.678654012502
 22
2133.860232181603
 32
0.0
 13
1263.678654012502
 23
2133.860232181603
 33
0.0
  0
SOLID
  5
17C7
  8
0
  6
BYBLOCK
 62
     0
 10
1148.555624161711
 20
2122.362774397804
 30
0.0
 11
1148.630882543054
 21
2122.529015716487
 31
0.0
 12
1148.680730625797
 22
2122.495621575582
 32
0.0
 13
1148.680730625797
 23
2122.495621575582
 33
0.0
  0
ARC
  5
17C8
  8
0
  6
BYBLOCK
 62
     0
 10
1210.827241209913
 20
2080.754210137485
 30
0.0
 40
74.89343702623813
 50
45.13770556143818
 51
59.36826770524419
  0
ARC
  5
17C9
  8
0
  6
BYBLOCK
 62
     0
 10
1210.827241209913
 20
2080.754210137485
 30
0.0
 40
74.89343702623813
 50
120.6317322947558
 51
146.1122944385386
  0
ENDBLK
  5
1955
  8
0
  0
BLOCK
  8
0
  2
*D124
 70
     1
 10
0.0
 20
0.0
 30
0.0
  3
*D124
  1

  0
TEXT
  5
17CE
  8
0
  6
BYBLOCK
 62
     0
 10
1177.533675678281
 20
2369.047108732419
 30
0.0
 40
20.0
  1
22.50°
  0
POINT
  5
17CF
  8
DEFPOINTS
  6
BYBLOCK
 62
     0
 10
1104.361935098892
 20
2623.724224201813
 30
0.0
  0
POINT
  5
17D0
  8
DEFPOINTS
  6
BYBLOCK
 62
     0
 10
1210.827241209913
 20
2080.754210137485
 30
0.0
  0
POINT
  5
17D1
  8
DEFPOINTS
  6
BYBLOCK
 62
     0
 10
1493.669953684589
 20
2363.59692261205
 30
0.0
  0
POINT
  5
17D2
  8
DEFPOINTS
  6
BYBLOCK
 62
     0
 10
951.2885621527832
 20
2254.172411197329
 30
0.0
  0
SOLID
  5
17D3
  8
0
  6
BYBLOCK
 62
     0
 10
1379.894983829237
 20
2249.821952756742
 30
0.0
 11
1379.746482218986
 21
2249.92800591206
 31
0.0
 12
1379.788904950995
 22
2249.970435993475
 32
0.0
 13
1379.788904950995
 23
2249.970435993475
 33
0.0
  0
SOLID
  5
17D4
  8
0
  6
BYBLOCK
 62
     0
 10
1042.787365118907
 20
2475.070062258924
 30
0.0
 11
1042.965140371473
 21
2475.028880229166
 31
0.0
 12
1042.942174564386
 22
2474.973449446159
 32
0.0
 13
1042.942174564386
 23
2474.973449446159
 33
0.0
  0
ARC
  5
17D5
  8
0
  6
BYBLOCK
 62
     0
 10
645.141816260567
 20
1515.068785188361
 30
0.0
 40
1039.097894572
 50
45.00992518642123
 51
55.26129280106072
  0
ARC
  5
17D6
  8
0
  6
BYBLOCK
 62
     0
 10
645.141816260567
 20
1515.068785188361
 30
0.0
 40
1039.097894572
 50
57.2649308425332
 51
67.49007481355626
  0
ENDBLK
  5
1957
  8
0
  0
BLOCK
  8
0
  2
*D125
 70
     1
 10
0.0
 20
0.0
 30
0.0
  3
*D125
  1

  0
POINT
  5
17DB
  8
DEFPOINTS
  6
BYBLOCK
 62
     0
 10
1494.111895422831
 20
2363.154980873808
 30
0.0
  0
POINT
  5
17DC
  8
DEFPOINTS
  6
BYBLOCK
 62
     0
 10
1141.620724804631
 20
2715.308103284397
 30
0.0
  0
LINE
  5
17DD
  8
0
  6
BYBLOCK
 62
     0
 10
1494.156068389724
 20
2363.199196244392
 30
0.0
 11
1524.504628617128
 21
2393.576889470301
 31
0.0
  0
LINE
  5
17DE
  8
0
  6
BYBLOCK
 62
     0
 10
1141.664897771523
 20
2715.352318654981
 30
0.0
 11
1172.013457998927
 21
2745.730011880889
 31
0.0
  0
LINE
  5
17DF
  8
0
  6
BYBLOCK
 62
     0
 10
1524.250070205194
 20
2393.576767347669
 30
0.0
 11
1384.809133203855
 21
2532.883976860917
 31
0.0
  0
LINE
  5
17E0
  8
0
  6
BYBLOCK
 62
     0
 10
1172.013580121558
 20
2745.475453468956
 30
0.0
 11
1311.454517122897
 21
2606.168243955708
 31
0.0
  0
SOLID
  5
17E1
  8
0
  6
BYBLOCK
 62
     0
 10
1524.377410472476
 20
2393.449549203018
 30
0.0
 11
1524.271273229303
 21
2393.59799072555
 31
0.0
 12
1524.228867181086
 22
2393.555543969789
 32
0.0
 13
1524.228867181086
 23
2393.555543969789
 33
0.0
  0
SOLID
  5
17E2
  8
0
  6
BYBLOCK
 62
     0
 10
1171.886239854276
 20
2745.602671613607
 30
0.0
 11
1172.034783145667
 21
2745.496676846836
 31
0.0
 12
1171.992377097449
 22
2745.454230091076
 32
0.0
 13
1171.992377097449
 23
2745.454230091076
 33
0.0
  0
TEXT
  5
17E3
  8
0
  6
BYBLOCK
 62
     0
 10
1277.524114163651
 20
2573.340707029104
 30
0.0
 40
20.0
  1
498.2588
 50
348.7774872503499
  0
ENDBLK
  5
1959
  8
0
  0
BLOCK
  8
0
  2
NRE-380
 70
     0
 10
0.0
 20
0.0
 30
0.0
  3
NRE-380
  1

  0
LINE
  5
1847
  8
0
 10
-0.0000000000000426
 20
-200.0000000000009
 30
0.0
 11
0.0000000000000426
 21
200.0000000000014
 31
0.0
  0
LINE
  5
1848
  8
0
 10
-0.0000000000111413
 20
-199.9999999999986
 30
0.0
 11
306.1467458920716
 21
-260.8963739909691
 31
0.0
  0
LINE
  5
1849
  8
0
 10
497.0562748477137
 20
200.0000000000014
 30
0.0
 11
0.0000000000000426
 21
200.0000000000014
 31
0.0
  0
LINE
  5
184A
  8
0
 10
306.1467458920716
 20
-260.8963739909691
 30
0.0
 11
459.2201188381074
 21
108.6554390135457
 31
0.0
  0
LINE
  5
184B
  8
0
 10
459.2201188381074
 20
108.6554390135457
 30
0.0
 11
497.0562748477137
 21
200.0000000000014
 31
0.0
  0
ARC
  5
184C
  8
0
 10
0.0000000000031406
 20
-1000.0
 30
0.0
 40
1000.0
 50
67.5000000000002
 51
90.00000000000018
  0
LINE
  5
184D
  8
0
 10
306.1467458920716
 20
-260.8963739909691
 30
0.0
 11
497.4883125888409
 21
201.0430313740881
 31
0.0
  0
LINE
  5
184E
  8
0
 10
497.0562748477137
 20
200.0000000000014
 30
0.0
 11
336.8863890476972
 21
-58.45469526187662
 31
0.0
  0
LINE
  5
184F
  8
0
 10
336.8863890476972
 20
-58.45469526187662
 30
0.0
 11
306.1467458920716
 21
-260.8963739909691
 31
0.0
  0
INSERT
  5
1850
  8
0
  2
*U131
 10
0.0
 20
0.0
 30
0.0
1001
ACAD
1002
{
1000
R14_HATCH_DATA
1000
1850
1011
1.0
1021
0.0
1031
0.0
1021
0.0
1031
0.0
1011
0.0
1021
1.0
1031
0.0
1021
1.0
1031
0.0
1011
0.0
1021
0.0
1031
1.0
1021
0.0
1031
1.0
1040
0.0
1010
0.0
1020
0.0
1030
1.0
1020
0.0
1030
1.0
1000
SOLID
1070
     1
1070
     1
1071
        1
1071
        7
1070
     1
1070
     1
1071
        3
1040
336.886389047697
1040
-58.45469526187662
1040
-0.0122733823747595
1040
382.6834323650895
1040
-76.12046748871171
1040
0.0
1040
497.0562748477137
1040
200.0000000000014
1040
0.0
1071
        0
1070
     0
1070
     1
1040
0.001
1071
        0
1002
}
  0
INSERT
  5
1851
  8
0
  2
*U132
 10
0.0
 20
0.0
 30
0.0
1001
ACAD
1002
{
1000
R14_HATCH_DATA
1000
1851
1011
1.0
1021
0.0
1031
0.0
1021
0.0
1031
0.0
1011
0.0
1021
1.0
1031
0.0
1021
1.0
1031
0.0
1011
0.0
1021
0.0
1031
1.0
1021
0.0
1031
1.0
1040
0.0
1010
0.0
1020
0.0
1030
1.0
1020
0.0
1030
1.0
1000
SOLID
1070
     1
1070
     1
1071
        1
1071
        7
1070
     1
1070
     1
1071
        3
1040
382.6834323650897
1040
-76.12046748871171
1040
0.0122733823747597
1040
336.8863890476972
1040
-58.45469526187662
1040
0.0
1040
306.1467458920716
1040
-260.8963739909691
1040
0.0
1071
        3
1005
184C
1005
184F
1005
184D
1070
     0
1070
     1
1040
0.001
1071
        0
1002
}
  0
ARC
  5
1852
  8
0
 10
0.0000000000011511
 20
-1000.000000000011
 30
0.0
 40
1000.000000000011
 50
67.50000000000037
 51
90.00000000000007
  0
POLYLINE
  5
1853
  8
0
 66
     1
 10
0.0
 20
0.0
 30
0.0
 40
9.0
 41
9.0
  0
VERTEX
  5
1976
  8
0
 10
0.0
 20
0.0
 30
0.0
 42
-0.0984914033571637
  0
VERTEX
  5
1977
  8
0
 10
382.6834323650895
 20
-76.12046748871171
 30
0.0
 42
-10.15317038760878
  0
SEQEND
  5
1975
  8
0
  0
TEXT
  5
1854
  8
0
 62
     2
 10
43.25025424594899
 20
165.1735727854339
 30
0.0
 40
20.0
  1
DL 08/2012
  0
TEXT
  5
1855
  8
0
 10
35.46843904545185
 20
17.46514407390896
 30
0.0
 40
20.0
  1
Hügelbogen 1
  0
TEXT
  5
1856
  8
0
 10
38.1928262323683
 20
71.1317550816716
 30
0.0
 40
40.0
  1
353, 22,5°
  0
TEXT
  5
1857
  8
0
 10
34.24267427484246
 20
-92.79955115565099
 30
0.0
 40
40.0
  1
KaEli
  0
TEXT
  5
1858
  8
0
 10
30.29252231731661
 20
-181.6779701999826
 30
0.0
 40
40.0
  1
NRE-380
  0
ENDBLK
  5
195B
  8
0
  0
BLOCK
  8
0
  2
*U127
 70
     1
 10
0.0
 20
0.0
 30
0.0
  3
*U127
  1

  0
ENDBLK
  5
1961
  8
0
  0
BLOCK
  8
0
  2
*U128
 70
     1
 10
0.0
 20
0.0
 30
0.0
  3
*U128
  1

  0
ENDBLK
  5
1964
  8
0
  0
BLOCK
  8
0
  2
*U129
 70
     1
 10
0.0
 20
0.0
 30
0.0
  3
*U129
  1

  0
ENDBLK
  5
1967
  8
0
  0
BLOCK
  8
0
  2
*U130
 70
     1
 10
0.0
 20
0.0
 30
0.0
  3
*U130
  1

  0
ENDBLK
  5
196A
  8
0
  0
BLOCK
  8
0
  2
*U131
 70
     1
 10
0.0
 20
0.0
 30
0.0
  3
*U131
  1

  0
SOLID
  5
196C
  8
0
 10
382.6834323650895
 20
-76.12046748871171
 30
0.0
 11
336.886389047697
 21
-58.45469526187662
 31
0.0
 12
382.6834323650895
 22
15.4447198208709
 32
0.0
 13
382.6834323650895
 23
15.4447198208709
 33
0.0
  0
SOLID
  5
196D
  8
0
 10
382.6834323650895
 20
-76.12046748871171
 30
0.0
 11
382.6834323650895
 21
15.4447198208709
 31
0.0
 12
497.0562748477137
 22
200.0000000000014
 32
0.0
 13
497.0562748477137
 23
200.0000000000014
 33
0.0
  0
ENDBLK
  5
196F
  8
0
  0
BLOCK
  8
0
  2
*U132
 70
     1
 10
0.0
 20
0.0
 30
0.0
  3
*U132
  1

  0
SOLID
  5
1971
  8
0
 10
-336.8863890476972
 20
-186.6843105821487
 30
0.0
 11
-306.1467458920716
 21
-260.8963739909691
 31
0.0
 12
-336.8863890476972
 22
-58.45469526187662
 32
0.0
 13
-336.8863890476972
 23
-58.45469526187662
 33
0.0
210
0.0
220
0.0
230
-1.0
  0
SOLID
  5
1972
  8
0
 10
-336.8863890476972
 20
-186.6843105821487
 30
0.0
 11
-336.8863890476972
 21
-58.45469526187662
 31
0.0
 12
-382.6834323650897
 22
-76.12046748871171
 32
0.0
 13
-382.6834323650897
 23
-76.12046748871171
 33
0.0
210
0.0
220
0.0
230
-1.0
  0
ENDBLK
  5
1974
  8
0
  0
ENDSEC
  0
SECTION
  2
ENTITIES
  0
INSERT
  5
1801
  8
0
  2
*U127
 10
0.0
 20
0.0
 30
0.0
1001
ACAD
1002
{
1000
R14_HATCH_DATA
1000
1801
1011
1.0
1021
0.0
1031
0.0
1021
0.0
1031
0.0
1011
0.0
1021
1.0
1031
0.0
1021
1.0
1031
0.0
1011
0.0
1021
0.0
1031
1.0
1021
0.0
1031
1.0
1040
0.0
1010
0.0
1020
0.0
1030
1.0
1020
0.0
1030
1.0
1000
SOLID
1070
     1
1070
     1
1071
        0
1070
     0
1070
     1
1071
        0
1002
}
  0
INSERT
  5
1802
  8
0
  2
*U128
 10
0.0
 20
0.0
 30
0.0
1001
ACAD
1002
{
1000
R14_HATCH_DATA
1000
1802
1011
1.0
1021
0.0
1031
0.0
1021
0.0
1031
0.0
1011
0.0
1021
1.0
1031
0.0
1021
1.0
1031
0.0
1011
0.0
1021
0.0
1031
1.0
1021
0.0
1031
1.0
1040
0.0
1010
0.0
1020
0.0
1030
1.0
1020
0.0
1030
1.0
1000
SOLID
1070
     1
1070
     1
1071
        0
1070
     0
1070
     1
1071
        0
1002
}
  0
INSERT
  5
1803
  8
0
  2
*U129
 10
0.0
 20
0.0
 30
0.0
1001
ACAD
1002
{
1000
R14_HATCH_DATA
1000
1803
1011
1.0
1021
0.0
1031
0.0
1021
0.0
1031
0.0
1011
0.0
1021
1.0
1031
0.0
1021
1.0
1031
0.0
1011
0.0
1021
0.0
1031
1.0
1021
0.0
1031
1.0
1040
0.0
1010
0.0
1020
0.0
1030
1.0
1020
0.0
1030
1.0
1000
SOLID
1070
     1
1070
     1
1071
        0
1070
     0
1070
     1
1071
        0
1002
}
  0
INSERT
  5
1815
  8
0
  2
*U130
 10
0.0
 20
0.0
 30
0.0
1001
ACAD
1002
{
1000
R14_HATCH_DATA
1000
1815
1011
1.0
1021
0.0
1031
0.0
1021
0.0
1031
0.0
1011
0.0
1021
1.0
1031
0.0
1021
1.0
1031
0.0
1011
0.0
1021
0.0
1031
1.0
1021
0.0
1031
1.0
1040
0.0
1010
0.0
1020
0.0
1030
1.0
1020
0.0
1030
1.0
1000
SOLID
1070
     1
1070
     1
1071
        0
1070
     0
1070
     1
1071
        0
1002
}
  0
INSERT
  5
185B
  8
0
  2
NRE-380
 10
0.0
 20
0.0
 30
0.0
  0
ENDSEC
  0
EOF
