  0
SECTION
  2
HEADER
  9
$ACADVER
  1
AC1009
  9
$DWGCODEPAGE
  3
ansi_1252
  9
$INSBASE
 10
0.0
 20
0.0
 30
0.0
  9
$EXTMIN
 10
-279.6266679380674
 20
-200.9561877109742
 30
0.0
  9
$EXTMAX
 10
422.3733320619326
 20
190.3771391699145
 30
0.0
  9
$LIMMIN
 10
0.0
 20
0.0
  9
$LIMMAX
 10
420.0
 20
297.0
  9
$ORTHOMODE
 70
     0
  9
$REGENMODE
 70
     1
  9
$FILLMODE
 70
     1
  9
$QTEXTMODE
 70
     0
  9
$MIRRTEXT
 70
     0
  9
$DRAGMODE
 70
     2
  9
$LTSCALE
 40
1.0
  9
$OSMODE
 70
    37
  9
$ATTMODE
 70
     1
  9
$TEXTSIZE
 40
50.0
  9
$TRACEWID
 40
1.0
  9
$TEXTSTYLE
  7
STANDARD
  9
$CLAYER
  8
0
  9
$CELTYPE
  6
BYLAYER
  9
$CECOLOR
 62
   256
  9
$DIMSCALE
 40
1.0
  9
$DIMASZ
 40
2.5
  9
$DIMEXO
 40
0.625
  9
$DIMDLI
 40
3.75
  9
$DIMRND
 40
0.0
  9
$DIMDLE
 40
0.0
  9
$DIMEXE
 40
1.25
  9
$DIMTP
 40
0.0
  9
$DIMTM
 40
0.0
  9
$DIMTXT
 40
50.0
  9
$DIMCEN
 40
2.5
  9
$DIMTSZ
 40
0.0
  9
$DIMTOL
 70
     0
  9
$DIMLIM
 70
     0
  9
$DIMTIH
 70
     0
  9
$DIMTOH
 70
     0
  9
$DIMSE1
 70
     0
  9
$DIMSE2
 70
     0
  9
$DIMTAD
 70
     1
  9
$DIMZIN
 70
     8
  9
$DIMBLK
  1

  9
$DIMASO
 70
     1
  9
$DIMSHO
 70
     1
  9
$DIMPOST
  1

  9
$DIMAPOST
  1

  9
$DIMALT
 70
     0
  9
$DIMALTD
 70
     3
  9
$DIMALTF
 40
0.03937007874016
  9
$DIMLFAC
 40
1.0
  9
$DIMTOFL
 70
     1
  9
$DIMTVP
 40
0.0
  9
$DIMTIX
 70
     0
  9
$DIMSOXD
 70
     0
  9
$DIMSAH
 70
     0
  9
$DIMBLK1
  1

  9
$DIMBLK2
  1

  9
$DIMSTYLE
  2
STANDARD
  9
$DIMCLRD
 70
     0
  9
$DIMCLRE
 70
     0
  9
$DIMCLRT
 70
     0
  9
$DIMTFAC
 40
1.0
  9
$DIMGAP
 40
0.625
  9
$LUNITS
 70
     2
  9
$LUPREC
 70
     4
  9
$SKETCHINC
 40
1.0
  9
$FILLETRAD
 40
0.0
  9
$AUNITS
 70
     0
  9
$AUPREC
 70
     0
  9
$MENU
  1
.
  9
$ELEVATION
 40
0.0
  9
$PELEVATION
 40
0.0
  9
$THICKNESS
 40
0.0
  9
$LIMCHECK
 70
     0
  9
$CHAMFERA
 40
0.0
  9
$CHAMFERB
 40
0.0
  9
$SKPOLY
 70
     0
  9
$TDCREATE
 40
2453353.800459155
  9
$TDUPDATE
 40
2454589.141497778
  9
$TDINDWG
 40
4895786.051922963
  9
$TDUSRTIMER
 40
9763088.046677036
  9
$USRTIMER
 70
     1
  9
$ANGBASE
 50
0.0
  9
$ANGDIR
 70
     0
  9
$PDMODE
 70
     0
  9
$PDSIZE
 40
0.0
  9
$PLINEWID
 40
9.0
  9
$COORDS
 70
     1
  9
$SPLFRAME
 70
     0
  9
$SPLINETYPE
 70
     6
  9
$SPLINESEGS
 70
     8
  9
$ATTDIA
 70
     0
  9
$ATTREQ
 70
     1
  9
$HANDLING
 70
     1
  9
$HANDSEED
  5
C8
  9
$SURFTAB1
 70
     6
  9
$SURFTAB2
 70
     6
  9
$SURFTYPE
 70
     6
  9
$SURFU
 70
     6
  9
$SURFV
 70
     6
  9
$UCSNAME
  2

  9
$UCSORG
 10
0.0
 20
0.0
 30
0.0
  9
$UCSXDIR
 10
1.0
 20
0.0
 30
0.0
  9
$UCSYDIR
 10
0.0
 20
1.0
 30
0.0
  9
$PUCSNAME
  2

  9
$PUCSORG
 10
0.0
 20
0.0
 30
0.0
  9
$PUCSXDIR
 10
1.0
 20
0.0
 30
0.0
  9
$PUCSYDIR
 10
0.0
 20
1.0
 30
0.0
  9
$USERI1
 70
     0
  9
$USERI2
 70
     0
  9
$USERI3
 70
     0
  9
$USERI4
 70
     0
  9
$USERI5
 70
     0
  9
$USERR1
 40
0.0
  9
$USERR2
 40
0.0
  9
$USERR3
 40
0.0
  9
$USERR4
 40
0.0
  9
$USERR5
 40
0.0
  9
$WORLDVIEW
 70
     1
  9
$SHADEDGE
 70
     3
  9
$SHADEDIF
 70
    70
  9
$TILEMODE
 70
     1
  9
$MAXACTVP
 70
    64
  9
$PLIMCHECK
 70
     0
  9
$PEXTMIN
 10
0.0
 20
0.0
 30
0.0
  9
$PEXTMAX
 10
0.0
 20
0.0
 30
0.0
  9
$PLIMMIN
 10
0.0
 20
0.0
  9
$PLIMMAX
 10
12.0
 20
9.0
  9
$UNITMODE
 70
     0
  9
$VISRETAIN
 70
     1
  9
$PLINEGEN
 70
     0
  9
$PSLTSCALE
 70
     1
  0
ENDSEC
  0
SECTION
  2
TABLES
  0
TABLE
  2
VPORT
 70
     1
  0
VPORT
  2
*ACTIVE
 70
     0
 10
0.0
 20
0.0
 11
1.0
 21
1.0
 12
124.926797055079
 22
-54.71771644326182
 13
0.0
 23
0.0
 14
0.5
 24
0.5
 15
0.5
 25
0.5
 16
0.0
 26
0.0
 36
1.0
 17
0.0
 27
0.0
 37
0.0
 40
695.1164994824713
 41
1.333333333333333
 42
50.0
 43
0.0
 44
0.0
 50
0.0
 51
0.0
 71
    16
 72
   100
 73
     0
 74
     1
 75
     0
 76
     0
 77
     0
 78
     0
  0
ENDTAB
  0
TABLE
  2
LTYPE
 70
     1
  0
LTYPE
  2
CONTINUOUS
 70
     0
  3
CONTINUOUS
 72
    65
 73
     0
 40
0.0
  0
ENDTAB
  0
TABLE
  2
LAYER
 70
     1
  0
LAYER
  2
0
 70
     0
 62
     7
  6
CONTINUOUS
  0
ENDTAB
  0
TABLE
  2
STYLE
 70
     1
  0
STYLE
  2
STANDARD
 70
     0
 40
0.0
 41
1.0
 50
0.0
 71
     0
 42
2.5
  3
txt
  4

  0
ENDTAB
  0
TABLE
  2
VIEW
 70
     0
  0
ENDTAB
  0
TABLE
  2
UCS
 70
     0
  0
ENDTAB
  0
TABLE
  2
APPID
 70
     1
  0
APPID
  2
ACAD
 70
     0
  0
ENDTAB
  0
TABLE
  2
DIMSTYLE
 70
     1
  0
DIMSTYLE
  2
STANDARD
 70
     0
  3

  4

  5

  6

  7

 40
1.0
 41
0.18
 42
0.0625
 43
0.38
 44
0.18
 45
0.0
 46
0.0
 47
0.0
 48
0.0
140
0.18
141
0.09
142
0.0
143
25.4
144
1.0
145
0.0
146
1.0
147
0.09
 71
     0
 72
     0
 73
     1
 74
     1
 75
     0
 76
     0
 77
     0
 78
     0
170
     0
171
     2
172
     0
173
     0
174
     0
175
     0
176
     0
177
     0
178
     0
  0
ENDTAB
  0
ENDSEC
  0
SECTION
  2
BLOCKS
  0
BLOCK
  8
0
  2
$MODEL_SPACE
 70
     0
 10
0.0
 20
0.0
 30
0.0
  3
$MODEL_SPACE
  1

  0
ENDBLK
  5
21
  8
0
  0
BLOCK
 67
     1
  8
0
  2
$PAPER_SPACE
 70
     0
 10
0.0
 20
0.0
 30
0.0
  3
$PAPER_SPACE
  1

  0
ENDBLK
  5
76
 67
     1
  8
0
  0
BLOCK
  8
0
  2
NRE_KLARI_215
 70
     0
 10
0.0
 20
0.0
 30
0.0
  3
NRE_KLARI_215
  1

  0
LINE
  5
9D
  8
0
 10
-39.01806440322605
 20
196.157056080646
 30
0.0
 11
662.981935596774
 21
196.157056080646
 31
0.0
  0
LINE
  5
9E
  8
0
 10
-39.01806440322605
 20
196.157056080646
 30
0.0
 11
38.82297408120905
 21
-195.1762708002427
 31
0.0
  0
LINE
  5
9F
  8
0
 10
662.981935596774
 20
196.157056080646
 30
0.0
 11
585.1408971123389
 21
-195.1762708002427
 31
0.0
  0
LINE
  5
A0
  8
0
 10
585.1408971123389
 20
-195.1762708002427
 30
0.0
 11
38.82297408120905
 21
-195.1762708002427
 31
0.0
  0
POLYLINE
  5
A1
  8
0
 66
     1
 10
0.0
 20
0.0
 30
0.0
 40
9.0
 41
9.0
  0
VERTEX
  5
BD
  8
0
 10
-0.0000000000003411
 20
-0.0000000000002274
 30
0.0
 42
-0.0883189518865139
  0
VERTEX
  5
BE
  8
0
 10
623.9638711935455
 20
0.0000000000006821
 30
0.0
 42
-11.32259813595798
  0
SEQEND
  5
BC
  8
0
  0
TEXT
  5
A2
  8
0
 10
163.8199231126783
 20
-137.2710061695004
 30
0.0
 40
50.0
  1
NRE-215
  0
TEXT
  5
A3
  8
0
 10
211.2390579415343
 20
-53.20981260925601
 30
0.0
 40
50.0
  1
KlaRi
  0
TEXT
  5
A4
  8
0
 62
     2
 10
205.0884266541644
 20
141.473681144947
 30
0.0
 40
25.0
  1
FJ 04/2008
  0
TEXT
  5
A5
  8
0
 10
127.7169532810477
 20
67.19706670675487
 30
0.0
 40
50.0
  1
702, 22,5°
  0
LINE
  5
A6
  8
0
 10
662.981935596774
 20
196.157056080646
 30
0.0
 11
574.6196296619283
 21
8.071296529642723
 31
0.0
  0
LINE
  5
A7
  8
0
 10
574.6196296619283
 20
8.071296529642723
 30
0.0
 11
585.1408971123389
 21
-195.1762708002427
 31
0.0
  0
INSERT
  5
A8
  8
0
  2
*U2
 10
0.0
 20
0.0
 30
0.0
1001
ACAD
1002
{
1000
R14_HATCH_DATA
1000
A8
1011
1.0
1021
0.0
1031
0.0
1021
0.0
1031
0.0
1011
0.0
1021
1.0
1031
0.0
1021
1.0
1031
0.0
1011
0.0
1021
0.0
1031
1.0
1021
0.0
1031
1.0
1040
0.0
1010
0.0
1020
0.0
1030
1.0
1020
0.0
1030
1.0
1000
SOLID
1070
     1
1070
     1
1071
        2
1071
        7
1070
     1
1070
     1
1071
        3
1040
662.981935596774
1040
196.157056080646
1040
0.0
1040
574.6196296619288
1040
8.071296529643632
1040
-0.0070228182582604
1040
623.9638711935482
1040
0.0000000000006821
1040
0.0
1071
        0
1071
        7
1070
     1
1070
     1
1071
        3
1040
623.963871193546
1040
0.0000000000011369
1040
0.0070228182582604
1040
574.6196296619283
1040
8.071296529642723
1040
0.0
1040
585.1408971123389
1040
-195.1762708002427
1040
0.0
1071
        0
1070
     0
1070
     1
1040
0.0
1071
        5
1040
0.0
1040
0.0
1040
0.0
1040
-0.0000000000003411
1040
0.0
1040
0.0
1040
2886.380346391769
1040
13.34961795051163
1040
0.0
1040
619.5828838086255
1040
57.35541529369448
1040
0.0
1040
598.3521515150425
1040
-38.1828800274302
1040
0.0
1002
}
  0
ENDBLK
  5
B2
  8
0
  0
BLOCK
  8
0
  2
*U2
 70
     1
 10
0.0
 20
0.0
 30
0.0
  3
*U2
  1

  0
SOLID
  5
C0
  8
0
 10
-585.1408971123389
 20
-195.1762708002427
 30
0.0
 11
-574.6196296619288
 21
8.071296529633939
 31
0.0
 12
-585.1408971123389
 22
6.350320244994011
 32
0.0
 13
-585.1408971123389
 23
6.350320244994011
 33
0.0
210
0.0
220
0.0
230
-1.0
  0
SOLID
  5
C1
  8
0
 10
585.1408971123389
 20
6.350320244993254
 30
0.0
 11
574.6196296619288
 21
8.071296529642648
 31
0.0
 12
585.1408971123389
 22
30.46659912970002
 32
0.0
 13
585.1408971123389
 23
30.46659912970002
 33
0.0
  0
SOLID
  5
C2
  8
0
 10
-585.1408971123389
 20
-195.1762708002427
 30
0.0
 11
-585.1408971123389
 21
6.350320244994011
 31
0.0
 12
-623.9638711935482
 22
0.0000000000125532
 32
0.0
 13
-623.9638711935482
 23
0.0000000000125532
 33
0.0
210
0.0
220
0.0
230
-1.0
  0
SOLID
  5
C3
  8
0
 10
585.1408971123389
 20
6.350320244994011
 30
0.0
 11
585.1408971123389
 21
30.46659912970002
 31
0.0
 12
623.9638711935482
 22
0.0000000000007645
 32
0.0
 13
623.9638711935482
 23
0.0000000000007645
 33
0.0
  0
SOLID
  5
C4
  8
0
 10
623.9638711935482
 20
0.0000000000007645
 30
0.0
 11
585.1408971123389
 21
30.46659912970002
 31
0.0
 12
623.9638711935482
 22
113.1041954536052
 32
0.0
 13
623.9638711935482
 23
113.1041954536052
 33
0.0
  0
SOLID
  5
C5
  8
0
 10
623.9638711935482
 20
0.0000000000125532
 30
0.0
 11
623.9638711935482
 21
113.1041954536052
 31
0.0
 12
662.981935596774
 22
196.157056080646
 32
0.0
 13
662.981935596774
 23
196.157056080646
 33
0.0
  0
ENDBLK
  5
C7
  8
0
  0
ENDSEC
  0
SECTION
  2
ENTITIES
  0
INSERT
  5
AB
  8
0
  2
NRE_KLARI_215
 10
-240.6086035348413
 20
-5.779916910731515
 30
0.0
  0
ENDSEC
  0
EOF
