  0
SECTION
  2
HEADER
  9
$ACADVER
  1
AC1009
  9
$DWGCODEPAGE
  3
ansi_1252
  9
$INSBASE
 10
0.0
 20
0.0
 30
0.0
  9
$EXTMIN
 10
0.0
 20
-1455.437032246017
 30
0.0
  9
$EXTMAX
 10
3600.0
 20
496.3465017740092
 30
0.0
  9
$LIMMIN
 10
0.0
 20
0.0
  9
$LIMMAX
 10
420.0
 20
297.0
  9
$ORTHOMODE
 70
     0
  9
$REGENMODE
 70
     1
  9
$FILLMODE
 70
     1
  9
$QTEXTMODE
 70
     0
  9
$MIRRTEXT
 70
     1
  9
$DRAGMODE
 70
     2
  9
$LTSCALE
 40
1.0
  9
$OSMODE
 70
    37
  9
$ATTMODE
 70
     1
  9
$TEXTSIZE
 40
2.5
  9
$TRACEWID
 40
1.0
  9
$TEXTSTYLE
  7
STANDARD
  9
$CLAYER
  8
0
  9
$CELTYPE
  6
BYLAYER
  9
$CECOLOR
 62
   256
  9
$DIMSCALE
 40
1.0
  9
$DIMASZ
 40
2.5
  9
$DIMEXO
 40
0.625
  9
$DIMDLI
 40
3.75
  9
$DIMRND
 40
0.0
  9
$DIMDLE
 40
0.0
  9
$DIMEXE
 40
1.25
  9
$DIMTP
 40
0.0
  9
$DIMTM
 40
0.0
  9
$DIMTXT
 40
2.5
  9
$DIMCEN
 40
2.5
  9
$DIMTSZ
 40
0.0
  9
$DIMTOL
 70
     0
  9
$DIMLIM
 70
     0
  9
$DIMTIH
 70
     0
  9
$DIMTOH
 70
     0
  9
$DIMSE1
 70
     0
  9
$DIMSE2
 70
     0
  9
$DIMTAD
 70
     1
  9
$DIMZIN
 70
     8
  9
$DIMBLK
  1

  9
$DIMASO
 70
     1
  9
$DIMSHO
 70
     1
  9
$DIMPOST
  1

  9
$DIMAPOST
  1

  9
$DIMALT
 70
     0
  9
$DIMALTD
 70
     4
  9
$DIMALTF
 40
0.0394
  9
$DIMLFAC
 40
1.0
  9
$DIMTOFL
 70
     1
  9
$DIMTVP
 40
0.0
  9
$DIMTIX
 70
     0
  9
$DIMSOXD
 70
     0
  9
$DIMSAH
 70
     0
  9
$DIMBLK1
  1

  9
$DIMBLK2
  1

  9
$DIMSTYLE
  2
STANDARD
  9
$DIMCLRD
 70
     0
  9
$DIMCLRE
 70
     0
  9
$DIMCLRT
 70
     0
  9
$DIMTFAC
 40
1.0
  9
$DIMGAP
 40
0.625
  9
$LUNITS
 70
     2
  9
$LUPREC
 70
     4
  9
$SKETCHINC
 40
1.0
  9
$FILLETRAD
 40
10.0
  9
$AUNITS
 70
     0
  9
$AUPREC
 70
     0
  9
$MENU
  1
.
  9
$ELEVATION
 40
0.0
  9
$PELEVATION
 40
0.0
  9
$THICKNESS
 40
0.0
  9
$LIMCHECK
 70
     0
  9
$CHAMFERA
 40
10.0
  9
$CHAMFERB
 40
10.0
  9
$SKPOLY
 70
     0
  9
$TDCREATE
 40
2453353.800459155
  9
$TDUPDATE
 40
4914344.163017778
  9
$TDINDWG
 40
4895786.051922963
  9
$TDUSRTIMER
 40
4895786.051922963
  9
$USRTIMER
 70
     1
  9
$ANGBASE
 50
0.0
  9
$ANGDIR
 70
     0
  9
$PDMODE
 70
     0
  9
$PDSIZE
 40
0.0
  9
$PLINEWID
 40
0.0
  9
$COORDS
 70
     1
  9
$SPLFRAME
 70
     0
  9
$SPLINETYPE
 70
     6
  9
$SPLINESEGS
 70
     8
  9
$ATTDIA
 70
     0
  9
$ATTREQ
 70
     1
  9
$HANDLING
 70
     1
  9
$HANDSEED
  5
194
  9
$SURFTAB1
 70
     6
  9
$SURFTAB2
 70
     6
  9
$SURFTYPE
 70
     6
  9
$SURFU
 70
     6
  9
$SURFV
 70
     6
  9
$UCSNAME
  2

  9
$UCSORG
 10
0.0
 20
0.0
 30
0.0
  9
$UCSXDIR
 10
1.0
 20
0.0
 30
0.0
  9
$UCSYDIR
 10
0.0
 20
1.0
 30
0.0
  9
$PUCSNAME
  2

  9
$PUCSORG
 10
0.0
 20
0.0
 30
0.0
  9
$PUCSXDIR
 10
1.0
 20
0.0
 30
0.0
  9
$PUCSYDIR
 10
0.0
 20
1.0
 30
0.0
  9
$USERI1
 70
     0
  9
$USERI2
 70
     0
  9
$USERI3
 70
     0
  9
$USERI4
 70
     0
  9
$USERI5
 70
     0
  9
$USERR1
 40
0.0
  9
$USERR2
 40
0.0
  9
$USERR3
 40
0.0
  9
$USERR4
 40
0.0
  9
$USERR5
 40
0.0
  9
$WORLDVIEW
 70
     1
  9
$SHADEDGE
 70
     3
  9
$SHADEDIF
 70
    70
  9
$TILEMODE
 70
     1
  9
$MAXACTVP
 70
    48
  9
$PLIMCHECK
 70
     0
  9
$PEXTMIN
 10
0.0
 20
0.0
 30
0.0
  9
$PEXTMAX
 10
0.0
 20
0.0
 30
0.0
  9
$PLIMMIN
 10
0.0
 20
0.0
  9
$PLIMMAX
 10
0.0
 20
0.0
  9
$UNITMODE
 70
     0
  9
$VISRETAIN
 70
     1
  9
$PLINEGEN
 70
     0
  9
$PSLTSCALE
 70
     1
  0
ENDSEC
  0
SECTION
  2
TABLES
  0
TABLE
  2
VPORT
 70
     1
  0
VPORT
  2
*ACTIVE
 70
     0
 10
0.0
 20
0.0
 11
1.0
 21
1.0
 12
1556.349744964021
 22
-282.2341399272227
 13
0.0
 23
0.0
 14
10.0
 24
10.0
 15
10.0
 25
10.0
 16
0.0
 26
0.0
 36
1.0
 17
0.0
 27
0.0
 37
0.0
 40
3687.333639653361
 41
2.587131367292226
 42
50.0
 43
0.0
 44
0.0
 50
0.0
 51
0.0
 71
    16
 72
   100
 73
     1
 74
     1
 75
     0
 76
     0
 77
     0
 78
     0
  0
ENDTAB
  0
TABLE
  2
LTYPE
 70
     1
  0
LTYPE
  2
CONTINUOUS
 70
     0
  3
Solid line
 72
    65
 73
     0
 40
0.0
  0
ENDTAB
  0
TABLE
  2
LAYER
 70
     3
  0
LAYER
  2
0
 70
     0
 62
     7
  6
CONTINUOUS
  0
LAYER
  2
BEDIENRAUM
 70
     0
 62
     2
  6
CONTINUOUS
  0
LAYER
  2
DEFPOINTS
 70
     0
 62
     7
  6
CONTINUOUS
  0
ENDTAB
  0
TABLE
  2
STYLE
 70
     1
  0
STYLE
  2
STANDARD
 70
     0
 40
0.0
 41
1.0
 50
0.0
 71
     0
 42
2.5
  3
txt
  4

  0
ENDTAB
  0
TABLE
  2
VIEW
 70
     0
  0
ENDTAB
  0
TABLE
  2
UCS
 70
     0
  0
ENDTAB
  0
TABLE
  2
APPID
 70
     1
  0
APPID
  2
ACAD
 70
     0
  0
ENDTAB
  0
TABLE
  2
DIMSTYLE
 70
     1
  0
DIMSTYLE
  2
STANDARD
 70
     0
  3

  4

  5

  6

  7

 40
1.0
 41
0.18
 42
0.0625
 43
0.38
 44
0.18
 45
0.0
 46
0.0
 47
0.0
 48
0.0
140
0.18
141
0.09
142
0.0
143
25.4
144
1.0
145
0.0
146
1.0
147
0.09
 71
     0
 72
     0
 73
     1
 74
     1
 75
     0
 76
     0
 77
     0
 78
     0
170
     0
171
     2
172
     0
173
     0
174
     0
175
     0
176
     0
177
     0
178
     0
  0
ENDTAB
  0
ENDSEC
  0
SECTION
  2
BLOCKS
  0
BLOCK
  8
0
  2
$MODEL_SPACE
 70
     0
 10
0.0
 20
0.0
 30
0.0
  3
$MODEL_SPACE
  1

  0
ENDBLK
  5
21
  8
0
  0
BLOCK
 67
     1
  8
0
  2
$PAPER_SPACE
 70
     0
 10
0.0
 20
0.0
 30
0.0
  3
$PAPER_SPACE
  1

  0
ENDBLK
  5
76
 67
     1
  8
0
  0
BLOCK
  8
0
  2
A$C77116743
 70
     0
 10
0.0
 20
0.0
 30
0.0
  3
A$C77116743
  1

  0
POLYLINE
  5
D7
  8
0
 66
     1
 10
0.0
 20
0.0
 30
0.0
 40
9.0
 41
9.0
  0
VERTEX
  5
192
  8
0
 10
-0.0000002201363714
 20
4.499999790065544
 30
0.0
  0
VERTEX
  5
193
  8
0
 10
3599.999999779864
 20
4.499999790065544
 30
0.0
  0
SEQEND
  5
191
  8
0
  0
ENDBLK
  5
D0
  8
0
  0
BLOCK
  8
0
  2
A$C2A401B90
 70
     0
 10
0.0
 20
0.0
 30
0.0
  3
A$C2A401B90
  1

  0
TEXT
  5
82
  8
0
 10
0.0
 20
-0.0000014927904886
 30
0.0
 40
40.0
  1
F2
  0
ENDBLK
  5
D2
  8
0
  0
BLOCK
  8
0
  2
HAUSEN_DREIECK
 70
     0
 10
0.0
 20
0.0
 30
0.0
  3
HAUSEN_DREIECK
  1

  0
LINE
  5
8F
  8
0
 10
232.6610446055436
 20
109.1911763566928
 30
0.0
 11
1062.661044605544
 21
109.1911763566928
 31
0.0
  0
LINE
  5
90
  8
0
 10
232.6610446055436
 20
109.1911763566928
 30
0.0
 11
581.155020509158
 21
305.537678130702
 31
0.0
  0
LINE
  5
91
  8
0
 10
581.155020509158
 20
305.537678130702
 30
0.0
 11
1062.661044605544
 21
109.1911763566928
 31
0.0
  0
ENDBLK
  5
D4
  8
0
  0
BLOCK
  8
0
  2
A$C081206CF
 70
     0
 10
0.0
 20
0.0
 30
0.0
  3
A$C081206CF
  1

  0
INSERT
  5
B7
  8
0
  2
A$C2A401B90
 10
0.0000028576550903
 20
-0.0000001753387551
 30
0.0
  0
ENDBLK
  5
D6
  8
0
  0
BLOCK
  8
0
  2
*X4
 70
     1
 10
0.0
 20
0.0
 30
0.0
  3
*X4
  1

  0
LINE
  5
F2
  8
BEDIENRAUM
 10
299.945400374638
 20
-223.0691992496136
 30
0.0
 11
323.0145996242516
 21
-200.0
 31
0.0
  0
LINE
  5
F3
  8
BEDIENRAUM
 10
299.8388769877726
 20
-268.0770032418247
 30
0.0
 11
367.9158802295974
 21
-200.0
 31
0.0
  0
LINE
  5
F4
  8
BEDIENRAUM
 10
299.7323536009072
 20
-313.0848072340359
 30
0.0
 11
412.8171608349431
 21
-200.0
 31
0.0
  0
LINE
  5
F5
  8
BEDIENRAUM
 10
299.6258302140418
 20
-358.0926112262471
 30
0.0
 11
457.7184414402889
 21
-200.0
 31
0.0
  0
LINE
  5
F6
  8
BEDIENRAUM
 10
299.5193068271764
 20
-403.1004152184582
 30
0.0
 11
502.6197220456346
 21
-200.0
 31
0.0
  0
LINE
  5
F7
  8
BEDIENRAUM
 10
299.4127834403111
 20
-448.1082192106694
 30
0.0
 11
547.5210026509805
 21
-200.0
 31
0.0
  0
LINE
  5
F8
  8
BEDIENRAUM
 10
299.3062600534457
 20
-493.1160232028805
 30
0.0
 11
592.4222832563262
 21
-200.0
 31
0.0
  0
LINE
  5
F9
  8
BEDIENRAUM
 10
299.1997366665803
 20
-538.1238271950917
 30
0.0
 11
637.3235638616719
 21
-200.0
 31
0.0
  0
LINE
  5
FA
  8
BEDIENRAUM
 10
299.0932132797149
 20
-583.1316311873028
 30
0.0
 11
682.2248444670178
 21
-200.0
 31
0.0
  0
LINE
  5
FB
  8
BEDIENRAUM
 10
298.9866898928495
 20
-628.139435179514
 30
0.0
 11
727.1261250723635
 21
-200.0
 31
0.0
  0
LINE
  5
FC
  8
BEDIENRAUM
 10
298.8801665059841
 20
-673.1472391717251
 30
0.0
 11
772.0274056777092
 21
-200.0
 31
0.0
  0
LINE
  5
FD
  8
BEDIENRAUM
 10
298.7736431191187
 20
-718.1550431639363
 30
0.0
 11
816.9286862830551
 21
-200.0
 31
0.0
  0
LINE
  5
FE
  8
BEDIENRAUM
 10
298.6671197322534
 20
-763.1628471561475
 30
0.0
 11
861.8299668884008
 21
-200.0
 31
0.0
  0
LINE
  5
FF
  8
BEDIENRAUM
 10
298.560596345388
 20
-808.1706511483586
 30
0.0
 11
906.7312474937465
 21
-200.0
 31
0.0
  0
LINE
  5
100
  8
BEDIENRAUM
 10
298.4540729585225
 20
-853.1784551405698
 30
0.0
 11
951.6325280990923
 21
-200.0
 31
0.0
  0
LINE
  5
101
  8
BEDIENRAUM
 10
298.3475495716572
 20
-898.186259132781
 30
0.0
 11
996.5338087044381
 21
-200.0
 31
0.0
  0
LINE
  5
102
  8
BEDIENRAUM
 10
298.2410261847918
 20
-943.1940631249921
 30
0.0
 11
1041.435089309784
 21
-200.0
 31
0.0
  0
LINE
  5
103
  8
BEDIENRAUM
 10
298.1345027979264
 20
-988.2018671172033
 30
0.0
 11
1086.33636991513
 21
-200.0
 31
0.0
  0
LINE
  5
104
  8
BEDIENRAUM
 10
298.027979411061
 20
-1033.209671109414
 30
0.0
 11
1131.237650520475
 21
-200.0
 31
0.0
  0
LINE
  5
105
  8
BEDIENRAUM
 10
297.9214560241956
 20
-1078.217475101626
 30
0.0
 11
1176.138931125821
 21
-200.0
 31
0.0
  0
LINE
  5
106
  8
BEDIENRAUM
 10
297.8149326373302
 20
-1123.225279093837
 30
0.0
 11
1221.040211731167
 21
-200.0
 31
0.0
  0
LINE
  5
107
  8
BEDIENRAUM
 10
297.7084092504648
 20
-1168.233083086048
 30
0.0
 11
1265.941492336513
 21
-200.0
 31
0.0
  0
LINE
  5
108
  8
BEDIENRAUM
 10
297.6018858635994
 20
-1213.240887078259
 30
0.0
 11
1310.842772941858
 21
-200.0
 31
0.0
  0
LINE
  5
109
  8
BEDIENRAUM
 10
297.4953624767339
 20
-1258.24869107047
 30
0.0
 11
1355.744053547204
 21
-200.0
 31
0.0
  0
LINE
  5
10A
  8
BEDIENRAUM
 10
297.3888390898685
 20
-1303.256495062681
 30
0.0
 11
1400.64533415255
 21
-200.0
 31
0.0
  0
LINE
  5
10B
  8
BEDIENRAUM
 10
297.2823157030031
 20
-1348.264299054893
 30
0.0
 11
1445.546614757896
 21
-200.0
 31
0.0
  0
LINE
  5
10C
  8
BEDIENRAUM
 10
297.1757923161377
 20
-1393.272103047104
 30
0.0
 11
1490.447895363241
 21
-200.0
 31
0.0
  0
LINE
  5
10D
  8
BEDIENRAUM
 10
297.0692689292723
 20
-1438.279907039315
 30
0.0
 11
1535.349175968587
 21
-200.0
 31
0.0
  0
LINE
  5
10E
  8
BEDIENRAUM
 10
324.8134243279162
 20
-1455.437032246017
 30
0.0
 11
1580.250456573933
 21
-200.0
 31
0.0
  0
LINE
  5
10F
  8
BEDIENRAUM
 10
369.714704933262
 20
-1455.437032246017
 30
0.0
 11
1625.151737179279
 21
-200.0
 31
0.0
  0
LINE
  5
110
  8
BEDIENRAUM
 10
414.6159855386077
 20
-1455.437032246017
 30
0.0
 11
1670.053017784624
 21
-199.9999999999999
 31
0.0
  0
LINE
  5
111
  8
BEDIENRAUM
 10
459.5172661439535
 20
-1455.437032246017
 30
0.0
 11
1714.95429838997
 21
-199.9999999999999
 31
0.0
  0
LINE
  5
112
  8
BEDIENRAUM
 10
504.4185467492993
 20
-1455.437032246017
 30
0.0
 11
1759.855578995316
 21
-199.9999999999999
 31
0.0
  0
LINE
  5
113
  8
BEDIENRAUM
 10
549.3198273546451
 20
-1455.437032246017
 30
0.0
 11
1804.756859600662
 21
-199.9999999999999
 31
0.0
  0
LINE
  5
114
  8
BEDIENRAUM
 10
594.2211079599908
 20
-1455.437032246017
 30
0.0
 11
1849.658140206008
 21
-199.9999999999999
 31
0.0
  0
LINE
  5
115
  8
BEDIENRAUM
 10
639.1223885653366
 20
-1455.437032246017
 30
0.0
 11
1894.559420811353
 21
-199.9999999999999
 31
0.0
  0
LINE
  5
116
  8
BEDIENRAUM
 10
684.0236691706824
 20
-1455.437032246017
 30
0.0
 11
1939.460701416699
 21
-199.9999999999999
 31
0.0
  0
LINE
  5
117
  8
BEDIENRAUM
 10
728.9249497760281
 20
-1455.437032246017
 30
0.0
 11
1984.361982022045
 21
-199.9999999999999
 31
0.0
  0
LINE
  5
118
  8
BEDIENRAUM
 10
773.8262303813739
 20
-1455.437032246017
 30
0.0
 11
2029.263262627391
 21
-199.9999999999999
 31
0.0
  0
LINE
  5
119
  8
BEDIENRAUM
 10
818.7275109867197
 20
-1455.437032246017
 30
0.0
 11
2074.164543232736
 21
-199.9999999999999
 31
0.0
  0
LINE
  5
11A
  8
BEDIENRAUM
 10
863.6287915920655
 20
-1455.437032246017
 30
0.0
 11
2119.065823838082
 21
-199.9999999999999
 31
0.0
  0
LINE
  5
11B
  8
BEDIENRAUM
 10
908.5300721974112
 20
-1455.437032246017
 30
0.0
 11
2163.967104443428
 21
-199.9999999999999
 31
0.0
  0
LINE
  5
11C
  8
BEDIENRAUM
 10
953.4313528027569
 20
-1455.437032246017
 30
0.0
 11
2208.868385048774
 21
-199.9999999999999
 31
0.0
  0
LINE
  5
11D
  8
BEDIENRAUM
 10
998.3326334081028
 20
-1455.437032246017
 30
0.0
 11
2253.769665654119
 21
-199.9999999999999
 31
0.0
  0
LINE
  5
11E
  8
BEDIENRAUM
 10
1043.233914013449
 20
-1455.437032246017
 30
0.0
 11
2298.670946259465
 21
-199.9999999999999
 31
0.0
  0
LINE
  5
11F
  8
BEDIENRAUM
 10
1088.135194618794
 20
-1455.437032246017
 30
0.0
 11
2343.572226864811
 21
-199.9999999999999
 31
0.0
  0
LINE
  5
120
  8
BEDIENRAUM
 10
1133.03647522414
 20
-1455.437032246017
 30
0.0
 11
2388.473507470157
 21
-199.9999999999999
 31
0.0
  0
LINE
  5
121
  8
BEDIENRAUM
 10
1177.937755829486
 20
-1455.437032246017
 30
0.0
 11
2433.374788075503
 21
-199.9999999999999
 31
0.0
  0
LINE
  5
122
  8
BEDIENRAUM
 10
1222.839036434832
 20
-1455.437032246017
 30
0.0
 11
2478.276068680848
 21
-199.9999999999999
 31
0.0
  0
LINE
  5
123
  8
BEDIENRAUM
 10
1267.740317040177
 20
-1455.437032246017
 30
0.0
 11
2523.177349286194
 21
-199.9999999999999
 31
0.0
  0
LINE
  5
124
  8
BEDIENRAUM
 10
1312.641597645523
 20
-1455.437032246017
 30
0.0
 11
2568.07862989154
 21
-199.9999999999999
 31
0.0
  0
LINE
  5
125
  8
BEDIENRAUM
 10
1357.542878250869
 20
-1455.437032246017
 30
0.0
 11
2612.979910496886
 21
-199.9999999999999
 31
0.0
  0
LINE
  5
126
  8
BEDIENRAUM
 10
1402.444158856215
 20
-1455.437032246017
 30
0.0
 11
2657.881191102231
 21
-199.9999999999999
 31
0.0
  0
LINE
  5
127
  8
BEDIENRAUM
 10
1447.34543946156
 20
-1455.437032246017
 30
0.0
 11
2702.782471707577
 21
-199.9999999999999
 31
0.0
  0
LINE
  5
128
  8
BEDIENRAUM
 10
1492.246720066906
 20
-1455.437032246017
 30
0.0
 11
2747.683752312923
 21
-199.9999999999999
 31
0.0
  0
LINE
  5
129
  8
BEDIENRAUM
 10
1537.148000672252
 20
-1455.437032246017
 30
0.0
 11
2792.585032918269
 21
-199.9999999999999
 31
0.0
  0
LINE
  5
12A
  8
BEDIENRAUM
 10
1582.049281277598
 20
-1455.437032246017
 30
0.0
 11
2837.486313523615
 21
-199.9999999999999
 31
0.0
  0
LINE
  5
12B
  8
BEDIENRAUM
 10
1626.950561882944
 20
-1455.437032246017
 30
0.0
 11
2882.38759412896
 21
-199.9999999999999
 31
0.0
  0
LINE
  5
12C
  8
BEDIENRAUM
 10
1671.851842488289
 20
-1455.437032246017
 30
0.0
 11
2927.288874734306
 21
-199.9999999999999
 31
0.0
  0
LINE
  5
12D
  8
BEDIENRAUM
 10
1716.753123093635
 20
-1455.437032246017
 30
0.0
 11
2972.190155339652
 21
-199.9999999999999
 31
0.0
  0
LINE
  5
12E
  8
BEDIENRAUM
 10
1761.654403698981
 20
-1455.437032246017
 30
0.0
 11
3017.091435944998
 21
-199.9999999999999
 31
0.0
  0
LINE
  5
12F
  8
BEDIENRAUM
 10
1806.555684304327
 20
-1455.437032246017
 30
0.0
 11
3061.992716550343
 21
-199.9999999999999
 31
0.0
  0
LINE
  5
130
  8
BEDIENRAUM
 10
1851.456964909672
 20
-1455.437032246017
 30
0.0
 11
3106.893997155689
 21
-199.9999999999999
 31
0.0
  0
LINE
  5
131
  8
BEDIENRAUM
 10
1896.358245515018
 20
-1455.437032246017
 30
0.0
 11
3151.795277761035
 21
-199.9999999999999
 31
0.0
  0
LINE
  5
132
  8
BEDIENRAUM
 10
1941.259526120364
 20
-1455.437032246017
 30
0.0
 11
3196.696558366381
 21
-199.9999999999999
 31
0.0
  0
LINE
  5
133
  8
BEDIENRAUM
 10
1986.16080672571
 20
-1455.437032246017
 30
0.0
 11
3241.597838971726
 21
-199.9999999999999
 31
0.0
  0
LINE
  5
134
  8
BEDIENRAUM
 10
2031.062087331055
 20
-1455.437032246017
 30
0.0
 11
3286.499119577072
 21
-199.9999999999999
 31
0.0
  0
LINE
  5
135
  8
BEDIENRAUM
 10
2075.963367936401
 20
-1455.437032246017
 30
0.0
 11
3299.97471735682
 21
-231.4256828255979
 31
0.0
  0
LINE
  5
136
  8
BEDIENRAUM
 10
2120.864648541747
 20
-1455.437032246017
 30
0.0
 11
3299.938564217074
 21
-276.3631165706893
 31
0.0
  0
LINE
  5
137
  8
BEDIENRAUM
 10
2165.765929147093
 20
-1455.437032246017
 30
0.0
 11
3299.902411077329
 21
-321.3005503157808
 31
0.0
  0
LINE
  5
138
  8
BEDIENRAUM
 10
2210.667209752438
 20
-1455.437032246017
 30
0.0
 11
3299.866257937583
 21
-366.2379840608722
 31
0.0
  0
LINE
  5
139
  8
BEDIENRAUM
 10
2255.568490357784
 20
-1455.437032246017
 30
0.0
 11
3299.830104797837
 21
-411.1754178059637
 31
0.0
  0
LINE
  5
13A
  8
BEDIENRAUM
 10
2300.46977096313
 20
-1455.437032246017
 30
0.0
 11
3299.793951658091
 21
-456.1128515510552
 31
0.0
  0
LINE
  5
13B
  8
BEDIENRAUM
 10
2345.371051568476
 20
-1455.437032246017
 30
0.0
 11
3299.757798518346
 21
-501.0502852961467
 31
0.0
  0
LINE
  5
13C
  8
BEDIENRAUM
 10
2390.272332173821
 20
-1455.437032246017
 30
0.0
 11
3299.7216453786
 21
-545.9877190412382
 31
0.0
  0
LINE
  5
13D
  8
BEDIENRAUM
 10
2435.173612779167
 20
-1455.437032246017
 30
0.0
 11
3299.685492238854
 21
-590.9251527863296
 31
0.0
  0
LINE
  5
13E
  8
BEDIENRAUM
 10
2480.074893384513
 20
-1455.437032246017
 30
0.0
 11
3299.649339099109
 21
-635.862586531421
 31
0.0
  0
LINE
  5
13F
  8
BEDIENRAUM
 10
2524.976173989859
 20
-1455.437032246017
 30
0.0
 11
3299.613185959363
 21
-680.8000202765126
 31
0.0
  0
LINE
  5
140
  8
BEDIENRAUM
 10
2569.877454595204
 20
-1455.437032246017
 30
0.0
 11
3299.577032819617
 21
-725.737454021604
 31
0.0
  0
LINE
  5
141
  8
BEDIENRAUM
 10
2614.77873520055
 20
-1455.437032246017
 30
0.0
 11
3299.540879679872
 21
-770.6748877666955
 31
0.0
  0
LINE
  5
142
  8
BEDIENRAUM
 10
2659.680015805896
 20
-1455.437032246017
 30
0.0
 11
3299.504726540126
 21
-815.6123215117869
 31
0.0
  0
LINE
  5
143
  8
BEDIENRAUM
 10
2704.581296411242
 20
-1455.437032246017
 30
0.0
 11
3299.46857340038
 21
-860.5497552568784
 31
0.0
  0
LINE
  5
144
  8
BEDIENRAUM
 10
2749.482577016588
 20
-1455.437032246017
 30
0.0
 11
3299.432420260634
 21
-905.4871890019699
 31
0.0
  0
LINE
  5
145
  8
BEDIENRAUM
 10
2794.383857621933
 20
-1455.437032246017
 30
0.0
 11
3299.396267120889
 21
-950.4246227470613
 31
0.0
  0
LINE
  5
146
  8
BEDIENRAUM
 10
2839.285138227279
 20
-1455.437032246017
 30
0.0
 11
3299.360113981143
 21
-995.3620564921528
 31
0.0
  0
LINE
  5
147
  8
BEDIENRAUM
 10
2884.186418832625
 20
-1455.437032246017
 30
0.0
 11
3299.323960841397
 21
-1040.299490237244
 31
0.0
  0
LINE
  5
148
  8
BEDIENRAUM
 10
2929.087699437971
 20
-1455.437032246017
 30
0.0
 11
3299.287807701652
 21
-1085.236923982336
 31
0.0
  0
LINE
  5
149
  8
BEDIENRAUM
 10
2973.988980043316
 20
-1455.437032246017
 30
0.0
 11
3299.251654561906
 21
-1130.174357727427
 31
0.0
  0
LINE
  5
14A
  8
BEDIENRAUM
 10
3018.890260648662
 20
-1455.437032246017
 30
0.0
 11
3299.21550142216
 21
-1175.111791472519
 31
0.0
  0
LINE
  5
14B
  8
BEDIENRAUM
 10
3063.791541254008
 20
-1455.437032246017
 30
0.0
 11
3299.179348282415
 21
-1220.04922521761
 31
0.0
  0
LINE
  5
14C
  8
BEDIENRAUM
 10
3108.692821859353
 20
-1455.437032246017
 30
0.0
 11
3299.143195142669
 21
-1264.986658962702
 31
0.0
  0
LINE
  5
14D
  8
BEDIENRAUM
 10
3153.5941024647
 20
-1455.437032246017
 30
0.0
 11
3299.107042002923
 21
-1309.924092707793
 31
0.0
  0
LINE
  5
14E
  8
BEDIENRAUM
 10
3198.495383070045
 20
-1455.437032246017
 30
0.0
 11
3299.070888863178
 21
-1354.861526452885
 31
0.0
  0
LINE
  5
14F
  8
BEDIENRAUM
 10
3243.396663675391
 20
-1455.437032246017
 30
0.0
 11
3299.034735723432
 21
-1399.798960197976
 31
0.0
  0
LINE
  5
150
  8
BEDIENRAUM
 10
3288.297944280737
 20
-1455.437032246017
 30
0.0
 11
3298.998582583686
 21
-1444.736393943068
 31
0.0
  0
ENDBLK
  5
152
  8
0
  0
ENDSEC
  0
SECTION
  2
ENTITIES
  0
POLYLINE
  5
55
  8
0
 66
     1
 10
0.0
 20
0.0
 30
0.0
 40
9.0
 41
9.0
  0
VERTEX
  5
E9
  8
0
 10
331.3158380159302
 20
155.8579224742082
 30
0.0
  0
VERTEX
  5
EA
  8
0
 10
3190.71180741053
 20
155.8579224742082
 30
0.0
  0
SEQEND
  5
E8
  8
0
  0
POLYLINE
  5
56
  8
0
 66
     1
 10
0.0
 20
0.0
 30
0.0
 40
9.0
 41
9.0
  0
VERTEX
  5
EC
  8
0
 10
331.3158380159302
 20
110.6293738097004
 30
0.0
  0
VERTEX
  5
ED
  8
0
 10
2570.923289473653
 20
110.6293738097004
 30
0.0
  0
SEQEND
  5
EB
  8
0
  0
POLYLINE
  5
57
  8
0
 66
     1
 10
0.0
 20
0.0
 30
0.0
 40
9.0
 41
9.0
  0
VERTEX
  5
EF
  8
0
 10
0.0
 20
-12.5
 30
0.0
  0
VERTEX
  5
F0
  8
0
 10
3600.0
 20
-12.5
 30
0.0
  0
SEQEND
  5
EE
  8
0
  0
INSERT
  5
58
  8
0
  2
A$C77116743
 10
0.0000002201363714
 20
8.000000209934456
 30
0.0
  0
INSERT
  5
D8
  8
BEDIENRAUM
  2
*X4
 10
0.0
 20
0.0
 30
0.0
1001
ACAD
1000
HATCH
1002
{
1070
    19
1000
ANSI31
1040
10.0
1040
0.0
1000
ASC_BOUNDS
1070
     1
1070
     2
1070
     1
1005
D9
1000
ASC_SEEDPOINT
1011
0.0
1021
0.0
1031
0.0
1021
0.0
1031
0.0
1000
R14_HATCH_DATA
1000
D8
1011
1.0
1021
0.0
1031
0.0
1021
0.0
1031
0.0
1011
0.0
1021
1.0
1031
0.0
1021
1.0
1031
0.0
1011
0.0
1021
0.0
1031
1.0
1021
0.0
1031
1.0
1040
0.0
1010
0.0
1020
0.0
1030
1.0
1020
0.0
1030
1.0
1000
ANSI31
1070
     0
1070
     1
1071
        1
1071
        1
1071
        4
1070
     1
1040
297.0286618584141
1040
-1455.437032246017
1040
3298.989973688169
1040
-1455.437032246017
1070
     1
1040
3298.989973688169
1040
-1455.437032246017
1040
3300.0
1040
-200.0
1070
     1
1040
3300.0
1040
-200.0
1040
300.0
1040
-200.0
1070
     1
1040
300.0
1040
-200.0
1040
297.0286618584141
1040
-1455.437032246017
1071
        1
1005
D9
1070
     0
1070
     1
1040
0.0
1040
10.0
1070
     0
1070
     1
1040
0.7853981633974483
1040
-127.1897828837364
1040
-246.092857059876
1040
-22.45064030267288
1040
22.45064030267288
1070
     0
1071
        1
1040
0.0
1040
0.0
1040
0.0
1002
}
  0
POLYLINE
  5
D9
  8
BEDIENRAUM
 66
     1
 10
0.0
 20
0.0
 30
0.0
 70
     1
1001
ACAD
1000
ASC_BOUNDS
1002
{
1070
    19
1005
D8
1002
}
  0
VERTEX
  5
154
  8
BEDIENRAUM
 10
297.0286618584141
 20
-1455.437032246017
 30
0.0
  0
VERTEX
  5
155
  8
BEDIENRAUM
 10
3298.989973688169
 20
-1455.437032246017
 30
0.0
  0
VERTEX
  5
156
  8
BEDIENRAUM
 10
3300.0
 20
-200.0
 30
0.0
  0
VERTEX
  5
157
  8
BEDIENRAUM
 10
300.0
 20
-200.0
 30
0.0
  0
SEQEND
  5
153
  8
BEDIENRAUM
  0
POLYLINE
  5
5B
  8
0
 66
     1
 10
0.0
 20
0.0
 30
0.0
 70
     1
  0
VERTEX
  5
159
  8
0
 10
1500.0
 20
-200.0
 30
0.0
  0
VERTEX
  5
15A
  8
0
 10
2100.0
 20
-200.0
 30
0.0
  0
VERTEX
  5
15B
  8
0
 10
2100.0
 20
300.0
 30
0.0
  0
VERTEX
  5
15C
  8
0
 10
1500.0
 20
300.0
 30
0.0
  0
SEQEND
  5
158
  8
0
  0
LINE
  5
5C
  8
0
 10
0.0
 20
-200.0
 30
0.0
 11
0.0
 21
200.0
 31
0.0
  0
LINE
  5
5D
  8
0
 10
300.0
 20
300.0
 30
0.0
 11
300.0
 21
-200.0
 31
0.0
  0
LINE
  5
DA
  8
0
 10
1500.000000945863
 20
-200.0000003841439
 30
0.0
 11
1500.000000945863
 21
299.9999996158562
 31
0.0
  0
LINE
  5
5F
  8
0
 10
300.0000009458627
 20
-200.0000003841439
 30
0.0
 11
1500.000000945863
 21
-200.0000003841439
 31
0.0
  0
LINE
  5
60
  8
0
 10
300.0
 20
-200.0
 30
0.0
 11
0.0
 21
-200.0
 31
0.0
  0
POLYLINE
  5
63
  8
0
 66
     1
 10
0.0
 20
0.0
 30
0.0
 40
9.0
 41
9.0
  0
VERTEX
  5
15E
  8
0
 10
506.1004659614182
 20
12.5
 30
0.0
  0
VERTEX
  5
15F
  8
0
 10
840.2559549922626
 20
110.6293738097004
 30
0.0
  0
SEQEND
  5
15D
  8
0
  0
LINE
  5
64
  8
0
 10
1500.000000945863
 20
299.9999996158562
 30
0.0
 11
300.0000009458627
 21
299.9999996158562
 31
0.0
  0
POLYLINE
  5
65
  8
0
 66
     1
 10
0.0
 20
0.0
 30
0.0
 40
9.0
 41
9.0
  0
VERTEX
  5
161
  8
0
 10
76.50289964196008
 20
-12.5
 30
0.0
  0
VERTEX
  5
162
  8
0
 10
216.4765968853599
 20
12.5
 30
0.0
  0
SEQEND
  5
160
  8
0
  0
LINE
  5
66
  8
0
 10
0.0
 20
200.0
 30
0.0
 11
300.0
 21
300.0
 31
0.0
  0
TEXT
  5
67
  8
0
 10
105.7035817731635
 20
169.9661244468514
 30
0.0
 40
50.0
  1
300
  0
POLYLINE
  5
68
  8
0
 66
     1
 10
0.0
 20
0.0
 30
0.0
 40
9.0
 41
9.0
  0
VERTEX
  5
164
  8
0
 10
331.3158380159302
 20
98.12937380970038
 30
0.0
  0
VERTEX
  5
165
  8
0
 10
331.3158380159302
 20
123.1293738097004
 30
0.0
  0
SEQEND
  5
163
  8
0
  0
POLYLINE
  5
69
  8
0
 66
     1
 10
0.0
 20
0.0
 30
0.0
 40
9.0
 41
9.0
  0
VERTEX
  5
167
  8
0
 10
331.3158380159302
 20
143.3579224742082
 30
0.0
  0
VERTEX
  5
168
  8
0
 10
331.3158380159302
 20
168.3579224742082
 30
0.0
  0
SEQEND
  5
166
  8
0
  0
POLYLINE
  5
6A
  8
0
 66
     1
 10
0.0
 20
0.0
 30
0.0
 40
9.0
 41
9.0
  0
VERTEX
  5
16A
  8
0
 10
1044.093245588329
 20
110.6293738097004
 30
0.0
  0
VERTEX
  5
16B
  8
0
 10
1198.856879643249
 20
155.8579224742082
 30
0.0
  0
SEQEND
  5
169
  8
0
  0
TEXT
  5
DB
  8
0
 10
769.1784121145029
 20
239.9880493438086
 30
0.0
 40
50.0
  1
1200
  0
POLYLINE
  5
DC
  8
0
 66
     1
 10
0.0
 20
0.0
 30
0.0
 40
9.0
 41
9.0
  0
VERTEX
  5
16D
  8
0
 10
1834.817474460991
 20
155.8579224742082
 30
0.0
  0
VERTEX
  5
16E
  8
0
 10
1754.526256782964
 20
178.4875033258136
 30
0.0
  0
VERTEX
  5
16F
  8
0
 10
1699.219111208668
 20
202.5267109796504
 30
0.0
  0
VERTEX
  5
170
  8
0
 10
1631.191678677964
 20
233.9913159910889
 30
0.0
  0
VERTEX
  5
171
  8
0
 10
1551.023013343582
 20
280.1654980161698
 30
0.0
  0
VERTEX
  5
172
  8
0
 10
1492.69438945519
 20
331.4767184937196
 30
0.0
  0
VERTEX
  5
173
  8
0
 10
1456.363168669507
 20
376.6683299796896
 30
0.0
  0
VERTEX
  5
174
  8
0
 10
1444.246987951807
 20
398.1732508870046
 30
0.0
  0
SEQEND
  5
16C
  8
0
  0
TEXT
  5
6D
  8
0
 10
1729.481497277616
 20
232.7895346150137
 30
0.0
 40
50.0
  1
600
  0
POLYLINE
  5
6E
  8
0
 66
     1
 10
0.0
 20
0.0
 30
0.0
 70
     1
  0
VERTEX
  5
176
  8
0
 10
2100.0
 20
-200.0
 30
0.0
  0
VERTEX
  5
177
  8
0
 10
3300.0
 20
-200.0
 30
0.0
  0
VERTEX
  5
178
  8
0
 10
3300.0
 20
300.0
 30
0.0
  0
VERTEX
  5
179
  8
0
 10
2100.0
 20
300.0
 30
0.0
  0
SEQEND
  5
175
  8
0
  0
LINE
  5
6F
  8
0
 10
3600.0
 20
-200.0
 30
0.0
 11
3600.0
 21
199.9999999999999
 31
0.0
  0
LINE
  5
70
  8
0
 10
3300.0
 20
299.9999999999999
 30
0.0
 11
3300.0
 21
-200.0
 31
0.0
  0
TEXT
  5
71
  8
0
 10
2487.083277996255
 20
-135.4695155763334
 30
0.0
 40
50.0
  1
NRE-530
  0
TEXT
  5
72
  8
0
 62
     2
 10
2515.198506346175
 20
-167.9714159365894
 30
0.0
 40
25.0
  1
BK 05/2015
  0
LINE
  5
DD
  8
0
 10
3300.0
 20
-200.0
 30
0.0
 11
3600.0
 21
-200.0
 31
0.0
  0
POLYLINE
  5
DE
  8
0
 66
     1
 10
0.0
 20
0.0
 30
0.0
 40
9.0
 41
9.0
  0
VERTEX
  5
17B
  8
0
 10
2820.156400262045
 20
110.6293738097004
 30
0.0
  0
VERTEX
  5
17C
  8
0
 10
3190.71180741053
 20
110.6293738097004
 30
0.0
  0
SEQEND
  5
17A
  8
0
  0
POLYLINE
  5
DF
  8
0
 66
     1
 10
0.0
 20
0.0
 30
0.0
 40
9.0
 41
9.0
  0
VERTEX
  5
17E
  8
0
 10
3002.960733824074
 20
12.5
 30
0.0
  0
VERTEX
  5
17F
  8
0
 10
2372.98452825484
 20
155.5875295090837
 30
0.0
  0
SEQEND
  5
17D
  8
0
  0
POLYLINE
  5
E0
  8
0
 66
     1
 10
0.0
 20
0.0
 30
0.0
 40
9.0
 41
9.0
  0
VERTEX
  5
181
  8
0
 10
2820.156400262045
 20
110.6293738097004
 30
0.0
  0
VERTEX
  5
182
  8
0
 10
2621.027170979621
 20
155.8579224742082
 30
0.0
  0
SEQEND
  5
180
  8
0
  0
TEXT
  5
77
  8
0
 10
2531.321024359442
 20
-74.10748029836441
 30
0.0
 40
50.0
  1
MaNebe
  0
TEXT
  5
78
  8
0
 10
2569.17841116864
 20
239.9880497279523
 30
0.0
 40
50.0
  1
1200
  0
POLYLINE
  5
79
  8
0
 66
     1
 10
0.0
 20
0.0
 30
0.0
 40
9.0
 41
9.0
  0
VERTEX
  5
184
  8
0
 10
3190.71180741053
 20
98.12937380970038
 30
0.0
  0
VERTEX
  5
185
  8
0
 10
3190.71180741053
 20
123.1293738097004
 30
0.0
  0
SEQEND
  5
183
  8
0
  0
POLYLINE
  5
7A
  8
0
 66
     1
 10
0.0
 20
0.0
 30
0.0
 40
9.0
 41
9.0
  0
VERTEX
  5
187
  8
0
 10
3494.97556060833
 20
-12.5
 30
0.0
  0
VERTEX
  5
188
  8
0
 10
3340.933536890637
 20
12.5
 30
0.0
  0
SEQEND
  5
186
  8
0
  0
LINE
  5
7B
  8
0
 10
3600.0
 20
199.9999999999999
 30
0.0
 11
3300.0
 21
299.9999999999999
 31
0.0
  0
POLYLINE
  5
7C
  8
0
 66
     1
 10
0.0
 20
0.0
 30
0.0
 40
9.0
 41
9.0
  0
VERTEX
  5
18A
  8
0
 10
3190.71180741053
 20
143.3579224742082
 30
0.0
  0
VERTEX
  5
18B
  8
0
 10
3190.71180741053
 20
168.3579224742082
 30
0.0
  0
SEQEND
  5
189
  8
0
  0
TEXT
  5
7D
  8
0
 10
3398.449745093714
 20
126.4326551704684
 30
0.0
 40
50.0
  1
300
  0
TEXT
  5
7E
  8
0
 10
10.58185352065266
 20
28.21417744531891
 30
0.0
 40
40.0
  1
F2
  0
INSERT
  5
85
  8
0
  2
A$C2A401B90
 10
3506.008963235582
 20
31.38703868189032
 30
0.0
  0
INSERT
  5
94
  8
0
  2
HAUSEN_DREIECK
 10
1037.338955394456
 20
190.8088236433072
 30
0.0
  0
LINE
  5
A6
  8
0
 10
1456.363168669507
 20
376.6683299796896
 30
0.0
 11
1444.246987951807
 21
398.1732508870046
 31
0.0
  0
TEXT
  5
BD
  8
0
 10
1502.172151915121
 20
380.7323219947684
 30
0.0
 40
40.0
  1
F1
  0
POLYLINE
  5
C0
  8
0
 66
     1
 10
0.0
 20
0.0
 30
0.0
 70
     1
  0
VERTEX
  5
18D
  8
0
 10
783.737481006583
 20
-831.8814422651294
 30
0.0
  0
VERTEX
  5
18E
  8
0
 10
2783.737481006583
 20
-831.8814422651294
 30
0.0
  0
VERTEX
  5
18F
  8
0
 10
2783.737481006583
 20
-231.8814422651294
 30
0.0
  0
VERTEX
  5
190
  8
0
 10
783.737481006583
 20
-231.8814422651294
 30
0.0
  0
SEQEND
  5
18C
  8
0
  0
ENDSEC
  0
EOF
