  0
SECTION
  2
HEADER
  9
$ACADVER
  1
AC1009
  9
$DWGCODEPAGE
  3
ansi_1252
  9
$INSBASE
 10
0.0
 20
0.0
 30
0.0
  9
$EXTMIN
 10
-55.81438388943837
 20
-377.0325080108307
 30
0.0
  9
$EXTMAX
 10
824.1856161105616
 20
9.337822504796776
 30
0.0
  9
$LIMMIN
 10
0.0
 20
0.0
  9
$LIMMAX
 10
420.0
 20
297.0
  9
$ORTHOMODE
 70
     0
  9
$REGENMODE
 70
     1
  9
$FILLMODE
 70
     1
  9
$QTEXTMODE
 70
     0
  9
$MIRRTEXT
 70
     0
  9
$DRAGMODE
 70
     2
  9
$LTSCALE
 40
1.0
  9
$OSMODE
 70
    37
  9
$ATTMODE
 70
     1
  9
$TEXTSIZE
 40
50.0
  9
$TRACEWID
 40
1.0
  9
$TEXTSTYLE
  7
STANDARD
  9
$CLAYER
  8
0
  9
$CELTYPE
  6
BYLAYER
  9
$CECOLOR
 62
   256
  9
$DIMSCALE
 40
1.0
  9
$DIMASZ
 40
2.5
  9
$DIMEXO
 40
0.625
  9
$DIMDLI
 40
3.75
  9
$DIMRND
 40
0.0
  9
$DIMDLE
 40
0.0
  9
$DIMEXE
 40
1.25
  9
$DIMTP
 40
0.0
  9
$DIMTM
 40
0.0
  9
$DIMTXT
 40
2.5
  9
$DIMCEN
 40
2.5
  9
$DIMTSZ
 40
0.0
  9
$DIMTOL
 70
     0
  9
$DIMLIM
 70
     0
  9
$DIMTIH
 70
     0
  9
$DIMTOH
 70
     0
  9
$DIMSE1
 70
     0
  9
$DIMSE2
 70
     0
  9
$DIMTAD
 70
     1
  9
$DIMZIN
 70
     8
  9
$DIMBLK
  1

  9
$DIMASO
 70
     1
  9
$DIMSHO
 70
     1
  9
$DIMPOST
  1

  9
$DIMAPOST
  1

  9
$DIMALT
 70
     0
  9
$DIMALTD
 70
     3
  9
$DIMALTF
 40
0.03937007874016
  9
$DIMLFAC
 40
1.0
  9
$DIMTOFL
 70
     1
  9
$DIMTVP
 40
0.0
  9
$DIMTIX
 70
     0
  9
$DIMSOXD
 70
     0
  9
$DIMSAH
 70
     0
  9
$DIMBLK1
  1

  9
$DIMBLK2
  1

  9
$DIMSTYLE
  2
STANDARD
  9
$DIMCLRD
 70
     0
  9
$DIMCLRE
 70
     0
  9
$DIMCLRT
 70
     0
  9
$DIMTFAC
 40
1.0
  9
$DIMGAP
 40
0.625
  9
$LUNITS
 70
     2
  9
$LUPREC
 70
     4
  9
$SKETCHINC
 40
1.0
  9
$FILLETRAD
 40
0.0
  9
$AUNITS
 70
     0
  9
$AUPREC
 70
     0
  9
$MENU
  1
.
  9
$ELEVATION
 40
0.0
  9
$PELEVATION
 40
0.0
  9
$THICKNESS
 40
0.0
  9
$LIMCHECK
 70
     0
  9
$CHAMFERA
 40
0.0
  9
$CHAMFERB
 40
0.0
  9
$SKPOLY
 70
     0
  9
$TDCREATE
 40
2453353.800459155
  9
$TDUPDATE
 40
4914344.163017778
  9
$TDINDWG
 40
2440852.080755556
  9
$TDUSRTIMER
 40
9763448.072853334
  9
$USRTIMER
 70
     1
  9
$ANGBASE
 50
0.0
  9
$ANGDIR
 70
     0
  9
$PDMODE
 70
     0
  9
$PDSIZE
 40
0.0
  9
$PLINEWID
 40
9.0
  9
$COORDS
 70
     1
  9
$SPLFRAME
 70
     0
  9
$SPLINETYPE
 70
     6
  9
$SPLINESEGS
 70
     8
  9
$ATTDIA
 70
     0
  9
$ATTREQ
 70
     1
  9
$HANDLING
 70
     1
  9
$HANDSEED
  5
168
  9
$SURFTAB1
 70
     6
  9
$SURFTAB2
 70
     6
  9
$SURFTYPE
 70
     6
  9
$SURFU
 70
     6
  9
$SURFV
 70
     6
  9
$UCSNAME
  2

  9
$UCSORG
 10
0.0
 20
0.0
 30
0.0
  9
$UCSXDIR
 10
1.0
 20
0.0
 30
0.0
  9
$UCSYDIR
 10
0.0
 20
1.0
 30
0.0
  9
$PUCSNAME
  2

  9
$PUCSORG
 10
0.0
 20
0.0
 30
0.0
  9
$PUCSXDIR
 10
1.0
 20
0.0
 30
0.0
  9
$PUCSYDIR
 10
0.0
 20
1.0
 30
0.0
  9
$USERI1
 70
     0
  9
$USERI2
 70
     0
  9
$USERI3
 70
     0
  9
$USERI4
 70
     0
  9
$USERI5
 70
     0
  9
$USERR1
 40
0.0
  9
$USERR2
 40
0.0
  9
$USERR3
 40
0.0
  9
$USERR4
 40
0.0
  9
$USERR5
 40
0.0
  9
$WORLDVIEW
 70
     1
  9
$SHADEDGE
 70
     3
  9
$SHADEDIF
 70
    70
  9
$TILEMODE
 70
     1
  9
$MAXACTVP
 70
    48
  9
$PLIMCHECK
 70
     0
  9
$PEXTMIN
 10
0.0
 20
0.0
 30
0.0
  9
$PEXTMAX
 10
0.0
 20
0.0
 30
0.0
  9
$PLIMMIN
 10
0.0
 20
0.0
  9
$PLIMMAX
 10
0.0
 20
0.0
  9
$UNITMODE
 70
     0
  9
$VISRETAIN
 70
     1
  9
$PLINEGEN
 70
     0
  9
$PSLTSCALE
 70
     1
  0
ENDSEC
  0
SECTION
  2
TABLES
  0
TABLE
  2
VPORT
 70
     1
  0
VPORT
  2
*ACTIVE
 70
     0
 10
0.0
 20
0.0
 11
1.0
 21
1.0
 12
333.5940462458193
 22
-189.1274394866665
 13
0.0
 23
0.0
 14
0.5
 24
0.5
 15
0.5
 25
0.5
 16
0.0
 26
0.0
 36
1.0
 17
0.0
 27
0.0
 37
0.0
 40
613.1616395088574
 41
2.587131367292225
 42
50.0
 43
0.0
 44
0.0
 50
0.0
 51
0.0
 71
    16
 72
   100
 73
     0
 74
     1
 75
     0
 76
     0
 77
     0
 78
     0
  0
ENDTAB
  0
TABLE
  2
LTYPE
 70
     1
  0
LTYPE
  2
CONTINUOUS
 70
     0
  3
CONTINUOUS
 72
    65
 73
     0
 40
0.0
  0
ENDTAB
  0
TABLE
  2
LAYER
 70
     2
  0
LAYER
  2
0
 70
     0
 62
     7
  6
CONTINUOUS
  0
LAYER
  2
DEFPOINTS
 70
     0
 62
     7
  6
CONTINUOUS
  0
ENDTAB
  0
TABLE
  2
STYLE
 70
     1
  0
STYLE
  2
STANDARD
 70
     0
 40
0.0
 41
1.0
 50
0.0
 71
     0
 42
2.5
  3
txt
  4

  0
ENDTAB
  0
TABLE
  2
VIEW
 70
     0
  0
ENDTAB
  0
TABLE
  2
UCS
 70
     0
  0
ENDTAB
  0
TABLE
  2
APPID
 70
     1
  0
APPID
  2
ACAD
 70
     0
  0
ENDTAB
  0
TABLE
  2
DIMSTYLE
 70
     1
  0
DIMSTYLE
  2
STANDARD
 70
     0
  3

  4

  5

  6

  7

 40
1.0
 41
0.18
 42
0.0625
 43
0.38
 44
0.18
 45
0.0
 46
0.0
 47
0.0
 48
0.0
140
0.18
141
0.09
142
0.0
143
25.4
144
1.0
145
0.0
146
1.0
147
0.09
 71
     0
 72
     0
 73
     1
 74
     1
 75
     0
 76
     0
 77
     0
 78
     0
170
     0
171
     2
172
     0
173
     0
174
     0
175
     0
176
     0
177
     0
178
     0
  0
ENDTAB
  0
ENDSEC
  0
SECTION
  2
BLOCKS
  0
BLOCK
  8
0
  2
$MODEL_SPACE
 70
     0
 10
0.0
 20
0.0
 30
0.0
  3
$MODEL_SPACE
  1

  0
ENDBLK
  5
21
  8
0
  0
BLOCK
 67
     1
  8
0
  2
$PAPER_SPACE
 70
     0
 10
0.0
 20
0.0
 30
0.0
  3
$PAPER_SPACE
  1

  0
ENDBLK
  5
76
 67
     1
  8
0
  0
BLOCK
  8
0
  2
NRE-55
 70
     0
 10
0.0
 20
0.0
 30
0.0
  3
NRE-55
  1

  0
LINE
  5
BF
  8
0
 10
724.7085729384876
 20
-193.1851652578138
 30
0.0
 11
828.2361909794959
 21
193.1851652578135
 31
0.0
  0
LINE
  5
C0
  8
0
 10
828.2361909794959
 20
193.1851652578135
 30
0.0
 11
-51.76380902050411
 21
193.1851652578137
 31
0.0
  0
LINE
  5
C1
  8
0
 10
51.76380902050411
 20
-193.1851652578137
 30
0.0
 11
-51.76380902050411
 21
193.1851652578137
 31
0.0
  0
LINE
  5
C2
  8
0
 10
724.7085729384876
 20
-193.1851652578138
 30
0.0
 11
51.76380902050411
 21
-193.1851652578137
 31
0.0
  0
POLYLINE
  5
C3
  8
0
 66
     1
 10
0.0
 20
0.0
 30
0.0
 40
9.0
 41
9.0
  0
VERTEX
  5
163
  8
0
 10
773.2371438952079
 20
-12.07407282861277
 30
0.0
 42
0.131655196426883
  0
VERTEX
  5
164
  8
0
 10
3.235238063779009
 20
-12.07407282861402
 30
0.0
 42
7.595598405075998
  0
SEQEND
  5
162
  8
0
  0
POLYLINE
  5
C4
  8
0
 66
     1
 10
0.0
 20
0.0
 30
0.0
 40
9.0
 41
9.0
  0
VERTEX
  5
166
  8
0
 10
779.7076200227734
 20
12.07407282861323
 30
0.0
 42
0.1316551518179191
  0
VERTEX
  5
167
  8
0
 10
-3.235238063781679
 20
12.07407282861334
 30
0.0
 42
7.595600978706945
  0
SEQEND
  5
165
  8
0
  0
LINE
  5
C5
  8
0
 10
537.2085729384876
 20
-193.1851652578137
 30
0.0
 11
537.2085729384876
 21
-193.1851652578137
 31
0.0
  0
TEXT
  5
C6
  8
0
 10
267.977079684441
 20
-133.167985767323
 30
0.0
 40
50.0
  1
NRE-55
  0
TEXT
  5
C7
  8
0
 10
291.1267671238664
 20
-56.31905943215202
 30
0.0
 40
50.0
  1
MiMal
  0
TEXT
  5
C8
  8
0
 62
     2
 10
281.41752906408
 20
-173.515737868871
 30
0.0
 40
25.0
  1
FJ 31.03.2008
  0
TEXT
  5
C9
  8
0
 10
241.8415308052857
 20
126.1311060905721
 30
0.0
 40
50.0
  1
880, 30°
  0
ENDBLK
  5
150
  8
0
  0
BLOCK
  8
0
  2
*D3
 70
     1
 10
0.0
 20
0.0
 30
0.0
  3
*D3
  1

  0
LINE
  5
116
  8
0
  6
BYBLOCK
 62
     0
 10
47.71323415156986
 20
-377.6575080108306
 30
0.0
 11
47.71323415156985
 21
-463.7906072063325
 31
0.0
  0
LINE
  5
117
  8
0
  6
BYBLOCK
 62
     0
 10
720.6579980695533
 20
-377.6575080108307
 30
0.0
 11
720.6579980695533
 21
-463.7906072063325
 31
0.0
  0
LINE
  5
118
  8
0
  6
BYBLOCK
 62
     0
 10
50.21323415156985
 20
-462.5406072063325
 30
0.0
 11
718.1579980695533
 21
-462.5406072063325
 31
0.0
  0
SOLID
  5
119
  8
0
  6
BYBLOCK
 62
     0
 10
50.21323415156985
 20
-462.1239405396659
 30
0.0
 11
50.21323415156985
 21
-462.9572738729992
 31
0.0
 12
47.71323415156985
 22
-462.5406072063325
 32
0.0
 13
47.71323415156985
 23
-462.5406072063325
 33
0.0
  0
SOLID
  5
11A
  8
0
  6
BYBLOCK
 62
     0
 10
718.1579980695533
 20
-462.1239405396659
 30
0.0
 11
718.1579980695533
 21
-462.9572738729992
 31
0.0
 12
720.6579980695533
 22
-462.5406072063325
 32
0.0
 13
720.6579980695533
 23
-462.5406072063325
 33
0.0
  0
TEXT
  5
11B
  8
0
  6
BYBLOCK
 62
     0
 10
375.4356161105616
 20
-461.9156072063325
 30
0.0
 40
2.5
  1
672.9448
  0
POINT
  5
11D
  8
DEFPOINTS
  6
BYBLOCK
 62
     0
 10
47.71323415156986
 20
-377.0325080108306
 30
0.0
  0
POINT
  5
11E
  8
DEFPOINTS
  6
BYBLOCK
 62
     0
 10
720.6579980695533
 20
-377.0325080108307
 30
0.0
  0
POINT
  5
11F
  8
DEFPOINTS
  6
BYBLOCK
 62
     0
 10
720.6579980695533
 20
-462.5406072063325
 30
0.0
  0
ENDBLK
  5
152
  8
0
  0
BLOCK
  8
0
  2
*D4
 70
     1
 10
0.0
 20
0.0
 30
0.0
  3
*D4
  1

  0
ARC
  5
124
  8
0
  6
BYBLOCK
 62
     0
 10
384.1856161105614
 20
-1632.76453282551
 30
0.0
 40
1434.509453836969
 50
75.09985257784575
 51
104.9001474221542
  0
SOLID
  5
125
  8
0
  6
BYBLOCK
 62
     0
 10
753.1560961963106
 20
-246.087297245773
 30
0.0
 11
752.9411151460497
 21
-246.892423069774
 31
0.0
 12
755.463983143183
 22
-247.134803308556
 32
0.0
 13
755.463983143183
 23
-247.134803308556
 33
0.0
  0
SOLID
  5
126
  8
0
  6
BYBLOCK
 62
     0
 10
15.43011707507327
 20
-246.892423069774
 30
0.0
 11
15.21513602481244
 21
-246.087297245773
 31
0.0
 12
12.90724907794004
 22
-247.134803308556
 32
0.0
 13
12.90724907794004
 23
-247.134803308556
 33
0.0
  0
TEXT
  5
127
  8
0
  6
BYBLOCK
 62
     0
 10
381.4856161105615
 20
-197.6300789885418
 30
0.0
 40
2.5
  1
30°
  0
POINT
  5
128
  8
DEFPOINTS
  6
BYBLOCK
 62
     0
 10
509.2113530382595
 20
-203.7138205506367
 30
0.0
  0
POINT
  5
129
  8
DEFPOINTS
  6
BYBLOCK
 62
     0
 10
47.71323415156986
 20
-377.0325080108306
 30
0.0
  0
POINT
  5
12A
  8
DEFPOINTS
  6
BYBLOCK
 62
     0
 10
720.6579980695533
 20
-377.0325080108307
 30
0.0
  0
POINT
  5
12B
  8
DEFPOINTS
  6
BYBLOCK
 62
     0
 10
824.1856161105616
 20
9.337822504796577
 30
0.0
  0
POINT
  5
12C
  8
DEFPOINTS
  6
BYBLOCK
 62
     0
 10
-55.81438388943837
 20
9.337822504796776
 30
0.0
  0
ENDBLK
  5
154
  8
0
  0
ENDSEC
  0
SECTION
  2
ENTITIES
  0
LINE
  5
12F
  8
0
 10
720.6579980695533
 20
-377.0325080108307
 30
0.0
 11
824.1856161105616
 21
9.337822504796577
 31
0.0
  0
LINE
  5
130
  8
0
 10
824.1856161105616
 20
9.337822504796577
 30
0.0
 11
-55.81438388943837
 21
9.337822504796776
 31
0.0
  0
LINE
  5
131
  8
0
 10
47.71323415156986
 20
-377.0325080108306
 30
0.0
 11
-55.81438388943837
 21
9.337822504796776
 31
0.0
  0
LINE
  5
132
  8
0
 10
720.6579980695533
 20
-377.0325080108307
 30
0.0
 11
47.71323415156986
 21
-377.0325080108306
 31
0.0
  0
POLYLINE
  5
133
  8
0
 66
     1
 10
0.0
 20
0.0
 30
0.0
 40
9.0
 41
9.0
  0
VERTEX
  5
15D
  8
0
 10
769.1865690262736
 20
-195.9214155816297
 30
0.0
 42
0.131655196426883
  0
VERTEX
  5
15E
  8
0
 10
-0.8153368051552485
 20
-195.9214155816309
 30
0.0
 42
7.595598405075998
  0
SEQEND
  5
15C
  8
0
  0
POLYLINE
  5
137
  8
0
 66
     1
 10
0.0
 20
0.0
 30
0.0
 40
9.0
 41
9.0
  0
VERTEX
  5
160
  8
0
 10
775.6570451538391
 20
-171.7732699244037
 30
0.0
 42
0.1316551518179191
  0
VERTEX
  5
161
  8
0
 10
-7.285812932715936
 20
-171.7732699244036
 30
0.0
 42
7.595600978706945
  0
SEQEND
  5
15F
  8
0
  0
LINE
  5
13B
  8
0
 10
533.1579980695533
 20
-377.0325080108306
 30
0.0
 11
533.1579980695533
 21
-377.0325080108306
 31
0.0
  0
TEXT
  5
13C
  8
0
 10
263.9265048155068
 20
-317.0153285203399
 30
0.0
 40
50.0
  1
NRE-538
  0
TEXT
  5
13D
  8
0
 10
287.0761922549322
 20
-240.1664021851689
 30
0.0
 40
50.0
  1
MaNeb
  0
TEXT
  5
13E
  8
0
 62
     2
 10
277.3669541951458
 20
-357.3630806218879
 30
0.0
 40
25.0
  1
BK 05/2015
  0
TEXT
  5
13F
  8
0
 10
237.7909559363514
 20
-57.71623666244481
 30
0.0
 40
50.0
  1
880, 30°
  0
ENDSEC
  0
EOF
