  0
SECTION
  2
HEADER
  9
$ACADVER
  1
AC1009
  9
$DWGCODEPAGE
  3
ansi_1252
  9
$INSBASE
 10
0.0
 20
0.0
 30
0.0
  9
$EXTMIN
 10
-223.4501644456479
 20
-336.2175585445946
 30
0.0
  9
$EXTMAX
 10
2926.061946130342
 20
1575.702891452417
 30
0.0
  9
$LIMMIN
 10
0.0
 20
0.0
  9
$LIMMAX
 10
420.0
 20
297.0
  9
$ORTHOMODE
 70
     0
  9
$REGENMODE
 70
     1
  9
$FILLMODE
 70
     1
  9
$QTEXTMODE
 70
     0
  9
$MIRRTEXT
 70
     0
  9
$DRAGMODE
 70
     2
  9
$LTSCALE
 40
1.0
  9
$OSMODE
 70
    37
  9
$ATTMODE
 70
     1
  9
$TEXTSIZE
 40
2.5
  9
$TRACEWID
 40
1.0
  9
$TEXTSTYLE
  7
STANDARD
  9
$CLAYER
  8
0
  9
$CELTYPE
  6
BYLAYER
  9
$CECOLOR
 62
   256
  9
$DIMSCALE
 40
1.0
  9
$DIMASZ
 40
2.5
  9
$DIMEXO
 40
0.625
  9
$DIMDLI
 40
3.75
  9
$DIMRND
 40
0.0
  9
$DIMDLE
 40
0.0
  9
$DIMEXE
 40
1.25
  9
$DIMTP
 40
0.0
  9
$DIMTM
 40
0.0
  9
$DIMTXT
 40
2.5
  9
$DIMCEN
 40
2.5
  9
$DIMTSZ
 40
0.0
  9
$DIMTOL
 70
     0
  9
$DIMLIM
 70
     0
  9
$DIMTIH
 70
     0
  9
$DIMTOH
 70
     0
  9
$DIMSE1
 70
     0
  9
$DIMSE2
 70
     0
  9
$DIMTAD
 70
     1
  9
$DIMZIN
 70
     8
  9
$DIMBLK
  1

  9
$DIMASO
 70
     1
  9
$DIMSHO
 70
     1
  9
$DIMPOST
  1

  9
$DIMAPOST
  1

  9
$DIMALT
 70
     0
  9
$DIMALTD
 70
     3
  9
$DIMALTF
 40
0.03937007874016
  9
$DIMLFAC
 40
1.0
  9
$DIMTOFL
 70
     1
  9
$DIMTVP
 40
0.0
  9
$DIMTIX
 70
     0
  9
$DIMSOXD
 70
     0
  9
$DIMSAH
 70
     0
  9
$DIMBLK1
  1

  9
$DIMBLK2
  1

  9
$DIMSTYLE
  2
STANDARD
  9
$DIMCLRD
 70
     0
  9
$DIMCLRE
 70
     0
  9
$DIMCLRT
 70
     0
  9
$DIMTFAC
 40
1.0
  9
$DIMGAP
 40
0.625
  9
$LUNITS
 70
     2
  9
$LUPREC
 70
     4
  9
$SKETCHINC
 40
1.0
  9
$FILLETRAD
 40
0.0
  9
$AUNITS
 70
     0
  9
$AUPREC
 70
     0
  9
$MENU
  1
.
  9
$ELEVATION
 40
0.0
  9
$PELEVATION
 40
0.0
  9
$THICKNESS
 40
0.0
  9
$LIMCHECK
 70
     0
  9
$CHAMFERA
 40
0.0
  9
$CHAMFERB
 40
0.0
  9
$SKPOLY
 70
     0
  9
$TDCREATE
 40
2453353.800459155
  9
$TDUPDATE
 40
4909132.157995556
  9
$TDINDWG
 40
9791572.06217926
  9
$TDUSRTIMER
 40
9763088.046677036
  9
$USRTIMER
 70
     1
  9
$ANGBASE
 50
0.0
  9
$ANGDIR
 70
     0
  9
$PDMODE
 70
     0
  9
$PDSIZE
 40
0.0
  9
$PLINEWID
 40
9.0
  9
$COORDS
 70
     1
  9
$SPLFRAME
 70
     0
  9
$SPLINETYPE
 70
     6
  9
$SPLINESEGS
 70
     8
  9
$ATTDIA
 70
     0
  9
$ATTREQ
 70
     1
  9
$HANDLING
 70
     1
  9
$HANDSEED
  5
F5
  9
$SURFTAB1
 70
     6
  9
$SURFTAB2
 70
     6
  9
$SURFTYPE
 70
     6
  9
$SURFU
 70
     6
  9
$SURFV
 70
     6
  9
$UCSNAME
  2

  9
$UCSORG
 10
0.0
 20
0.0
 30
0.0
  9
$UCSXDIR
 10
1.0
 20
0.0
 30
0.0
  9
$UCSYDIR
 10
0.0
 20
1.0
 30
0.0
  9
$PUCSNAME
  2

  9
$PUCSORG
 10
0.0
 20
0.0
 30
0.0
  9
$PUCSXDIR
 10
1.0
 20
0.0
 30
0.0
  9
$PUCSYDIR
 10
0.0
 20
1.0
 30
0.0
  9
$USERI1
 70
     0
  9
$USERI2
 70
     0
  9
$USERI3
 70
     0
  9
$USERI4
 70
     0
  9
$USERI5
 70
     0
  9
$USERR1
 40
0.0
  9
$USERR2
 40
0.0
  9
$USERR3
 40
0.0
  9
$USERR4
 40
0.0
  9
$USERR5
 40
0.0
  9
$WORLDVIEW
 70
     1
  9
$SHADEDGE
 70
     3
  9
$SHADEDIF
 70
    70
  9
$TILEMODE
 70
     1
  9
$MAXACTVP
 70
    64
  9
$PLIMCHECK
 70
     0
  9
$PEXTMIN
 10
0.0
 20
0.0
 30
0.0
  9
$PEXTMAX
 10
0.0
 20
0.0
 30
0.0
  9
$PLIMMIN
 10
0.0
 20
0.0
  9
$PLIMMAX
 10
12.0
 20
9.0
  9
$UNITMODE
 70
     0
  9
$VISRETAIN
 70
     1
  9
$PLINEGEN
 70
     0
  9
$PSLTSCALE
 70
     1
  0
ENDSEC
  0
SECTION
  2
TABLES
  0
TABLE
  2
VPORT
 70
     1
  0
VPORT
  2
*ACTIVE
 70
     0
 10
0.0
 20
0.0
 11
1.0
 21
1.0
 12
1551.987180750542
 22
258.2419511628536
 13
0.0
 23
0.0
 14
0.5
 24
0.5
 15
0.5
 25
0.5
 16
0.0
 26
0.0
 36
1.0
 17
0.0
 27
0.0
 37
0.0
 40
3409.001055593943
 41
1.333333333333333
 42
50.0
 43
0.0
 44
0.0
 50
0.0
 51
0.0
 71
    16
 72
   100
 73
     0
 74
     1
 75
     0
 76
     0
 77
     0
 78
     0
  0
ENDTAB
  0
TABLE
  2
LTYPE
 70
     1
  0
LTYPE
  2
CONTINUOUS
 70
     0
  3
CONTINUOUS
 72
    65
 73
     0
 40
0.0
  0
ENDTAB
  0
TABLE
  2
LAYER
 70
     2
  0
LAYER
  2
0
 70
     0
 62
     7
  6
CONTINUOUS
  0
LAYER
  2
BEDIENRAUM
 70
     0
 62
     2
  6
CONTINUOUS
  0
ENDTAB
  0
TABLE
  2
STYLE
 70
     1
  0
STYLE
  2
STANDARD
 70
     0
 40
0.0
 41
1.0
 50
0.0
 71
     0
 42
2.5
  3
txt
  4

  0
ENDTAB
  0
TABLE
  2
VIEW
 70
     0
  0
ENDTAB
  0
TABLE
  2
UCS
 70
     0
  0
ENDTAB
  0
TABLE
  2
APPID
 70
     1
  0
APPID
  2
ACAD
 70
     0
  0
ENDTAB
  0
TABLE
  2
DIMSTYLE
 70
     1
  0
DIMSTYLE
  2
STANDARD
 70
     0
  3

  4

  5

  6

  7

 40
1.0
 41
0.18
 42
0.0625
 43
0.38
 44
0.18
 45
0.0
 46
0.0
 47
0.0
 48
0.0
140
0.18
141
0.09
142
0.0
143
25.4
144
1.0
145
0.0
146
1.0
147
0.09
 71
     0
 72
     0
 73
     1
 74
     1
 75
     0
 76
     0
 77
     0
 78
     0
170
     0
171
     2
172
     0
173
     0
174
     0
175
     0
176
     0
177
     0
178
     0
  0
ENDTAB
  0
ENDSEC
  0
SECTION
  2
BLOCKS
  0
BLOCK
  8
0
  2
$MODEL_SPACE
 70
     0
 10
0.0
 20
0.0
 30
0.0
  3
$MODEL_SPACE
  1

  0
ENDBLK
  5
21
  8
0
  0
BLOCK
 67
     1
  8
0
  2
$PAPER_SPACE
 70
     0
 10
0.0
 20
0.0
 30
0.0
  3
$PAPER_SPACE
  1

  0
ENDBLK
  5
76
 67
     1
  8
0
  0
BLOCK
  8
0
  2
SÄGEWERK01
 70
     0
 10
0.0
 20
0.0
 30
0.0
  3
SÄGEWERK01
  1

  0
POLYLINE
  5
3B
  8
0
 66
     1
 10
0.0
 20
0.0
 30
0.0
  0
VERTEX
  5
DE
  8
0
 10
-8.049434896602065
 20
90.3181224200291
 30
0.0
  0
VERTEX
  5
DF
  8
0
 10
63.08598739169787
 20
145.5883829211815
 30
0.0
  0
VERTEX
  5
E0
  8
0
 10
123.9581702426929
 20
189.7606293543778
 30
0.0
  0
VERTEX
  5
E1
  8
0
 10
219.2989784932587
 20
195.2241705255267
 30
0.0
  0
VERTEX
  5
E2
  8
0
 10
287.0631588471198
 20
138.1454892078107
 30
0.0
  0
VERTEX
  5
E3
  8
0
 10
240.5498316333602
 20
82.92456571403223
 30
0.0
  0
VERTEX
  5
E4
  8
0
 10
188.7015064801228
 20
120.7134685666446
 30
0.0
  0
VERTEX
  5
E5
  8
0
 10
140.420446366881
 20
128.4328749130893
 30
0.0
  0
VERTEX
  5
E6
  8
0
 10
77.51005884646332
 20
108.0737702660064
 30
0.0
  0
VERTEX
  5
E7
  8
0
 10
22.54387451823368
 20
64.54896606891573
 30
0.0
  0
VERTEX
  5
E8
  8
0
 10
-8.049434896602065
 20
90.3181224200291
 30
0.0
  0
SEQEND
  5
DD
  8
0
  0
ARC
  5
3C
  8
0
 10
141.355976622561
 20
-53.98245579146449
 30
0.0
 40
186.2947822411693
 50
53.65416276302762
 51
135.492008549386
  0
ARC
  5
3D
  8
0
 10
155.8558178490004
 20
-31.39517654305565
 30
0.0
 40
170.5451054933434
 50
54.73107002879672
 51
114.5601842222335
  0
ARC
  5
3E
  8
0
 10
161.3678891683589
 20
22.37477509076359
 30
0.0
 40
122.5533082124922
 50
51.35109823722398
 51
112.6247241606489
  0
ARC
  5
3F
  8
0
 10
136.1183214099589
 20
-61.08457801738928
 30
0.0
 40
197.0183752716916
 50
96.9819192634382
 51
131.5582527670608
  0
ARC
  5
40
  8
0
 10
299.1227233573395
 20
-146.2558249524347
 30
0.0
 40
344.2085641262983
 50
104.0019596991244
 51
125.7950485629013
  0
ARC
  5
41
  8
0
 10
235.7232320386865
 20
-56.43756804592672
 30
0.0
 40
234.294901606023
 50
93.23257170890851
 51
121.0904274187896
  0
LINE
  5
42
  8
0
 10
212.7603995773233
 20
134.9848635804339
 30
0.0
 11
248.1724902746477
 21
121.6717118645463
 31
0.0
  0
ENDBLK
  5
D1
  8
0
  0
BLOCK
  8
0
  2
NRE-019
 70
     0
 10
0.0
 20
0.0
 30
0.0
  3
NRE-019
  1

  0
LINE
  5
A9
  8
BEDIENRAUM
 10
140.4452138319448
 20
-120.628486333115
 30
0.0
 11
395.3456658438411
 21
-336.2175585445946
 31
0.0
  0
LINE
  5
AA
  8
BEDIENRAUM
 10
395.3456658438411
 20
-336.2175585445946
 30
0.0
 11
799.9429394946612
 21
-34.75292327535613
 31
0.0
  0
LINE
  5
AB
  8
BEDIENRAUM
 10
799.9429394946612
 20
-34.75292327535613
 30
0.0
 11
1331.472691153582
 21
115.9793943592631
 31
0.0
  0
LINE
  5
AC
  8
BEDIENRAUM
 10
1331.472691153582
 20
115.9793943592631
 30
0.0
 11
1617.070766671807
 21
76.31299498173166
 31
0.0
  0
LINE
  5
AD
  8
BEDIENRAUM
 10
1617.070766671807
 20
76.31299498173166
 30
0.0
 11
2021.668040322627
 21
-217.2183604120003
 31
0.0
  0
LINE
  5
AE
  8
BEDIENRAUM
 10
2021.668040322627
 20
-217.2183604120003
 30
0.0
 11
2320.50478498321
 21
63.12751011804994
 31
0.0
  0
LINE
  5
AF
  8
BEDIENRAUM
 10
2785.638057120806
 20
615.3367450558344
 30
0.0
 11
2926.061946130342
 21
988.6401806649531
 31
0.0
  0
LINE
  5
B0
  8
BEDIENRAUM
 10
2926.061946130342
 20
988.6401806649531
 30
0.0
 11
2196.200197583765
 21
1575.702891452417
 31
0.0
  0
LINE
  5
B1
  8
BEDIENRAUM
 10
2196.200197583765
 20
1575.702891452417
 30
0.0
 11
1053.807895510862
 21
1528.103212199379
 31
0.0
  0
LINE
  5
B2
  8
BEDIENRAUM
 10
1053.807895510862
 20
1528.103212199379
 30
0.0
 11
-223.4501644456479
 21
615.7760265161583
 31
0.0
  0
LINE
  5
B3
  8
BEDIENRAUM
 10
-223.4501644456479
 20
615.7760265161583
 30
0.0
 11
-165.4878803164127
 21
137.0630771780186
 31
0.0
  0
TEXT
  5
B4
  8
0
 10
1690.15250907388
 20
755.4021149500932
 30
0.0
 40
95.0
  1
Sägewerk
  0
TEXT
  5
B5
  8
0
 62
     2
 10
688.3005431864083
 20
681.1561796334737
 30
0.0
 40
25.0
  1
FJ 28.03.2008
  0
TEXT
  5
B6
  8
0
 10
1097.744827710341
 20
917.0331448044888
 30
0.0
 40
50.0
  1
NRE-019
  0
TEXT
  5
B7
  8
0
 10
1145.163962539197
 20
1001.094338364733
 30
0.0
 40
50.0
  1
MiMal
  0
POLYLINE
  5
B8
  8
0
 66
     1
 10
0.0
 20
0.0
 30
0.0
  0
VERTEX
  5
EA
  8
0
 10
-165.4878803164127
 20
137.0630771780185
 30
0.0
  0
VERTEX
  5
EB
  8
0
 10
545.8663425665867
 20
689.7656821895419
 30
0.0
  0
VERTEX
  5
EC
  8
0
 10
1154.588171076537
 20
1131.488146521506
 30
0.0
  0
VERTEX
  5
ED
  8
0
 10
2107.996253582195
 20
1186.123558232995
 30
0.0
  0
VERTEX
  5
EE
  8
0
 10
2785.638057120806
 20
615.3367450558342
 30
0.0
  0
VERTEX
  5
EF
  8
0
 10
2320.50478498321
 20
63.12751011804971
 30
0.0
  0
VERTEX
  5
F0
  8
0
 10
1802.021533450836
 20
441.0165386441734
 30
0.0
  0
VERTEX
  5
F1
  8
0
 10
1319.210932318418
 20
518.2106021086206
 30
0.0
  0
VERTEX
  5
F2
  8
0
 10
690.1070571142412
 20
314.6195556377918
 30
0.0
  0
VERTEX
  5
F3
  8
0
 10
140.4452138319448
 20
-120.6284863331152
 30
0.0
  0
VERTEX
  5
F4
  8
0
 10
-165.4878803164127
 20
137.0630771780185
 30
0.0
  0
SEQEND
  5
E9
  8
0
  0
ARC
  5
B9
  8
0
 10
1328.566234875218
 20
-1305.942704936917
 30
0.0
 40
1862.947822411693
 50
53.65416276302762
 51
135.492008549386
  0
ARC
  5
BA
  8
0
 10
1473.564647139612
 20
-1080.069912452829
 30
0.0
 40
1705.451054933434
 50
54.73107002879672
 51
114.5601842222335
  0
ARC
  5
BB
  8
0
 10
1528.685360333197
 20
-542.3703961146366
 30
0.0
 40
1225.533082124922
 50
51.35109823722398
 51
112.6247241606489
  0
ARC
  5
BC
  8
0
 10
1276.189682749197
 20
-1376.963927196165
 30
0.0
 40
1970.183752716916
 50
96.9819192634382
 51
131.5582527670608
  0
ARC
  5
BD
  8
0
 10
2906.233702223003
 20
-2228.67639654662
 30
0.0
 40
3442.085641262983
 50
104.0019596991244
 51
125.7950485629013
  0
ARC
  5
BE
  8
0
 10
2272.238789036473
 20
-1330.49382748154
 30
0.0
 40
2342.94901606023
 50
93.23257170890851
 51
121.0904274187896
  0
LINE
  5
BF
  8
0
 10
2042.610464422841
 20
583.730488782066
 30
0.0
 11
2396.731371396085
 21
450.5989716231904
 31
0.0
  0
ENDBLK
  5
D3
  8
0
  0
ENDSEC
  0
SECTION
  2
ENTITIES
  0
INSERT
  5
C2
  8
0
  2
NRE-019
 10
0.0
 20
0.0
 30
0.0
  0
ENDSEC
  0
EOF
