  0
SECTION
  2
HEADER
  9
$ACADVER
  1
AC1009
  9
$DWGCODEPAGE
  3
ansi_1252
  9
$INSBASE
 10
0.0
 20
0.0
 30
0.0
  9
$EXTMIN
 10
82.55376612229094
 20
-337.7851960290161
 30
0.0
  9
$EXTMAX
 10
962.5537661222909
 20
48.58513448661137
 30
0.0
  9
$LIMMIN
 10
0.0
 20
0.0
  9
$LIMMAX
 10
420.0
 20
297.0
  9
$ORTHOMODE
 70
     0
  9
$REGENMODE
 70
     1
  9
$FILLMODE
 70
     1
  9
$QTEXTMODE
 70
     0
  9
$MIRRTEXT
 70
     0
  9
$DRAGMODE
 70
     2
  9
$LTSCALE
 40
1.0
  9
$OSMODE
 70
    37
  9
$ATTMODE
 70
     1
  9
$TEXTSIZE
 40
50.0
  9
$TRACEWID
 40
1.0
  9
$TEXTSTYLE
  7
STANDARD
  9
$CLAYER
  8
0
  9
$CELTYPE
  6
BYLAYER
  9
$CECOLOR
 62
   256
  9
$DIMSCALE
 40
1.0
  9
$DIMASZ
 40
2.5
  9
$DIMEXO
 40
0.625
  9
$DIMDLI
 40
3.75
  9
$DIMRND
 40
0.0
  9
$DIMDLE
 40
0.0
  9
$DIMEXE
 40
1.25
  9
$DIMTP
 40
0.0
  9
$DIMTM
 40
0.0
  9
$DIMTXT
 40
2.5
  9
$DIMCEN
 40
2.5
  9
$DIMTSZ
 40
0.0
  9
$DIMTOL
 70
     0
  9
$DIMLIM
 70
     0
  9
$DIMTIH
 70
     0
  9
$DIMTOH
 70
     0
  9
$DIMSE1
 70
     0
  9
$DIMSE2
 70
     0
  9
$DIMTAD
 70
     1
  9
$DIMZIN
 70
     8
  9
$DIMBLK
  1

  9
$DIMASO
 70
     1
  9
$DIMSHO
 70
     1
  9
$DIMPOST
  1

  9
$DIMAPOST
  1

  9
$DIMALT
 70
     0
  9
$DIMALTD
 70
     3
  9
$DIMALTF
 40
0.03937007874016
  9
$DIMLFAC
 40
1.0
  9
$DIMTOFL
 70
     1
  9
$DIMTVP
 40
0.0
  9
$DIMTIX
 70
     0
  9
$DIMSOXD
 70
     0
  9
$DIMSAH
 70
     0
  9
$DIMBLK1
  1

  9
$DIMBLK2
  1

  9
$DIMSTYLE
  2
STANDARD
  9
$DIMCLRD
 70
     0
  9
$DIMCLRE
 70
     0
  9
$DIMCLRT
 70
     0
  9
$DIMTFAC
 40
1.0
  9
$DIMGAP
 40
0.625
  9
$LUNITS
 70
     2
  9
$LUPREC
 70
     4
  9
$SKETCHINC
 40
1.0
  9
$FILLETRAD
 40
0.0
  9
$AUNITS
 70
     0
  9
$AUPREC
 70
     0
  9
$MENU
  1
.
  9
$ELEVATION
 40
0.0
  9
$PELEVATION
 40
0.0
  9
$THICKNESS
 40
0.0
  9
$LIMCHECK
 70
     0
  9
$CHAMFERA
 40
0.0
  9
$CHAMFERB
 40
0.0
  9
$SKPOLY
 70
     0
  9
$TDCREATE
 40
2453353.800459155
  9
$TDUPDATE
 40
2456748.139634074
  9
$TDINDWG
 40
2440772.066245926
  9
$TDUSRTIMER
 40
9763408.07478963
  9
$USRTIMER
 70
     1
  9
$ANGBASE
 50
0.0
  9
$ANGDIR
 70
     0
  9
$PDMODE
 70
     0
  9
$PDSIZE
 40
0.0
  9
$PLINEWID
 40
9.0
  9
$COORDS
 70
     1
  9
$SPLFRAME
 70
     0
  9
$SPLINETYPE
 70
     6
  9
$SPLINESEGS
 70
     8
  9
$ATTDIA
 70
     0
  9
$ATTREQ
 70
     1
  9
$HANDLING
 70
     1
  9
$HANDSEED
  5
132
  9
$SURFTAB1
 70
     6
  9
$SURFTAB2
 70
     6
  9
$SURFTYPE
 70
     6
  9
$SURFU
 70
     6
  9
$SURFV
 70
     6
  9
$UCSNAME
  2

  9
$UCSORG
 10
0.0
 20
0.0
 30
0.0
  9
$UCSXDIR
 10
1.0
 20
0.0
 30
0.0
  9
$UCSYDIR
 10
0.0
 20
1.0
 30
0.0
  9
$PUCSNAME
  2

  9
$PUCSORG
 10
0.0
 20
0.0
 30
0.0
  9
$PUCSXDIR
 10
1.0
 20
0.0
 30
0.0
  9
$PUCSYDIR
 10
0.0
 20
1.0
 30
0.0
  9
$USERI1
 70
     0
  9
$USERI2
 70
     0
  9
$USERI3
 70
     0
  9
$USERI4
 70
     0
  9
$USERI5
 70
     0
  9
$USERR1
 40
0.0
  9
$USERR2
 40
0.0
  9
$USERR3
 40
0.0
  9
$USERR4
 40
0.0
  9
$USERR5
 40
0.0
  9
$WORLDVIEW
 70
     1
  9
$SHADEDGE
 70
     3
  9
$SHADEDIF
 70
    70
  9
$TILEMODE
 70
     1
  9
$MAXACTVP
 70
    64
  9
$PLIMCHECK
 70
     0
  9
$PEXTMIN
 10
0.0
 20
0.0
 30
0.0
  9
$PEXTMAX
 10
0.0
 20
0.0
 30
0.0
  9
$PLIMMIN
 10
0.0
 20
0.0
  9
$PLIMMAX
 10
12.0
 20
9.0
  9
$UNITMODE
 70
     0
  9
$VISRETAIN
 70
     1
  9
$PLINEGEN
 70
     0
  9
$PSLTSCALE
 70
     1
  0
ENDSEC
  0
SECTION
  2
TABLES
  0
TABLE
  2
VPORT
 70
     1
  0
VPORT
  2
*ACTIVE
 70
     0
 10
0.0
 20
0.0
 11
1.0
 21
1.0
 12
548.6342735461138
 22
-178.0126677392119
 13
0.0
 23
0.0
 14
0.5
 24
0.5
 15
0.5
 25
0.5
 16
0.0
 26
0.0
 36
1.0
 17
0.0
 27
0.0
 37
0.0
 40
993.0235706892447
 41
1.333333333333333
 42
50.0
 43
0.0
 44
0.0
 50
0.0
 51
0.0
 71
    16
 72
   100
 73
     0
 74
     1
 75
     0
 76
     0
 77
     0
 78
     0
  0
ENDTAB
  0
TABLE
  2
LTYPE
 70
     1
  0
LTYPE
  2
CONTINUOUS
 70
     0
  3
CONTINUOUS
 72
    65
 73
     0
 40
0.0
  0
ENDTAB
  0
TABLE
  2
LAYER
 70
     1
  0
LAYER
  2
0
 70
     0
 62
     7
  6
CONTINUOUS
  0
ENDTAB
  0
TABLE
  2
STYLE
 70
     1
  0
STYLE
  2
STANDARD
 70
     0
 40
0.0
 41
1.0
 50
0.0
 71
     0
 42
2.5
  3
txt
  4

  0
ENDTAB
  0
TABLE
  2
VIEW
 70
     0
  0
ENDTAB
  0
TABLE
  2
UCS
 70
     0
  0
ENDTAB
  0
TABLE
  2
APPID
 70
     1
  0
APPID
  2
ACAD
 70
     0
  0
ENDTAB
  0
TABLE
  2
DIMSTYLE
 70
     1
  0
DIMSTYLE
  2
STANDARD
 70
     0
  3

  4

  5

  6

  7

 40
1.0
 41
0.18
 42
0.0625
 43
0.38
 44
0.18
 45
0.0
 46
0.0
 47
0.0
 48
0.0
140
0.18
141
0.09
142
0.0
143
25.4
144
1.0
145
0.0
146
1.0
147
0.09
 71
     0
 72
     0
 73
     1
 74
     1
 75
     0
 76
     0
 77
     0
 78
     0
170
     0
171
     2
172
     0
173
     0
174
     0
175
     0
176
     0
177
     0
178
     0
  0
ENDTAB
  0
ENDSEC
  0
SECTION
  2
BLOCKS
  0
BLOCK
  8
0
  2
$MODEL_SPACE
 70
     0
 10
0.0
 20
0.0
 30
0.0
  3
$MODEL_SPACE
  1

  0
ENDBLK
  5
21
  8
0
  0
BLOCK
 67
     1
  8
0
  2
$PAPER_SPACE
 70
     0
 10
0.0
 20
0.0
 30
0.0
  3
$PAPER_SPACE
  1

  0
ENDBLK
  5
76
 67
     1
  8
0
  0
BLOCK
  8
0
  2
NRE-58
 70
     0
 10
0.0
 20
0.0
 30
0.0
  3
NRE-58
  1

  0
LINE
  5
102
  8
0
 10
724.7085729384876
 20
-193.1851652578138
 30
0.0
 11
828.2361909794959
 21
193.1851652578135
 31
0.0
  0
LINE
  5
103
  8
0
 10
828.2361909794959
 20
193.1851652578135
 30
0.0
 11
-51.76380902050411
 21
193.1851652578137
 31
0.0
  0
LINE
  5
104
  8
0
 10
51.76380902050411
 20
-193.1851652578137
 30
0.0
 11
-51.76380902050411
 21
193.1851652578137
 31
0.0
  0
LINE
  5
105
  8
0
 10
724.7085729384876
 20
-193.1851652578138
 30
0.0
 11
51.76380902050411
 21
-193.1851652578137
 31
0.0
  0
POLYLINE
  5
106
  8
0
 66
     1
 10
0.0
 20
0.0
 30
0.0
 40
9.0
 41
9.0
  0
VERTEX
  5
123
  8
0
 10
773.2371438952077
 20
-12.07407282861277
 30
0.0
 42
0.131655196426883
  0
VERTEX
  5
124
  8
0
 10
3.235238063778951
 20
-12.07407282861402
 30
0.0
 42
7.595598405075998
  0
SEQEND
  5
122
  8
0
  0
POLYLINE
  5
107
  8
0
 66
     1
 10
0.0
 20
0.0
 30
0.0
 40
9.0
 41
9.0
  0
VERTEX
  5
126
  8
0
 10
779.7076200227734
 20
12.07407282861323
 30
0.0
 42
0.1316551518179191
  0
VERTEX
  5
127
  8
0
 10
-3.235238063781679
 20
12.07407282861334
 30
0.0
 42
7.595600978706945
  0
SEQEND
  5
125
  8
0
  0
LINE
  5
108
  8
0
 10
537.2085729384876
 20
-193.1851652578137
 30
0.0
 11
537.2085729384876
 21
-193.1851652578137
 31
0.0
  0
TEXT
  5
109
  8
0
 10
267.9770796844412
 20
-133.167985767323
 30
0.0
 40
50.0
  1
NRE-58
  0
TEXT
  5
10A
  8
0
 10
291.1267671238664
 20
-56.31905943215202
 30
0.0
 40
50.0
  1
MiMal
  0
TEXT
  5
10B
  8
0
 62
     2
 10
281.4175290640801
 20
-173.515737868871
 30
0.0
 40
25.0
  1
DL 12.05.2009
  0
TEXT
  5
10C
  8
0
 10
241.8415308052856
 20
126.1311060905721
 30
0.0
 40
50.0
  1
880, 30°
  0
LINE
  5
10D
  8
0
 10
-1.763809020504112
 20
193.1851652578135
 30
0.0
 11
-3.235238063781907
 21
12.07407282861345
 31
0.0
  0
INSERT
  5
10E
  8
0
  2
*U2
 10
0.0
 20
0.0
 30
0.0
1001
ACAD
1002
{
1000
R14_HATCH_DATA
1000
10E
1011
1.0
1021
0.0
1031
0.0
1021
0.0
1031
0.0
1011
0.0
1021
1.0
1031
0.0
1021
1.0
1031
0.0
1011
0.0
1021
0.0
1031
1.0
1021
0.0
1031
1.0
1040
0.0
1010
0.0
1020
0.0
1030
1.0
1020
0.0
1030
1.0
1000
SOLID
1070
     1
1070
     1
1071
        1
1071
        7
1070
     0
1070
     1
1071
        3
1040
-51.76380902050411
1040
193.1851652578135
1040
-1.763809020504112
1040
193.1851652578135
1040
-3.235238063781452
1040
12.07407282861328
1071
        3
1005
103
1005
10D
1005
102
1070
     0
1070
     1
1040
0.0
1071
        1
1040
0.0
1040
0.0
1040
0.0
1002
}
  0
LINE
  5
10F
  8
0
 10
101.7638090205042
 20
-193.1851652578138
 30
0.0
 11
3.235238063784124
 21
-12.07407282861254
 31
0.0
  0
INSERT
  5
110
  8
0
  2
*U3
 10
0.0
 20
0.0
 30
0.0
1001
ACAD
1002
{
1000
R14_HATCH_DATA
1000
110
1011
1.0
1021
0.0
1031
0.0
1021
0.0
1031
0.0
1011
0.0
1021
1.0
1031
0.0
1021
1.0
1031
0.0
1011
0.0
1021
0.0
1031
1.0
1021
0.0
1031
1.0
1040
0.0
1010
0.0
1020
0.0
1030
1.0
1020
0.0
1030
1.0
1000
SOLID
1070
     1
1070
     1
1071
        1
1071
        7
1070
     0
1070
     1
1071
        3
1040
51.76380902050417
1040
-193.1851652578138
1040
3.235238063784124
1040
-12.07407282861254
1040
101.7638090205042
1040
-193.1851652578138
1071
        3
1005
102
1005
10F
1005
105
1070
     0
1070
     1
1040
0.0
1071
        1
1040
0.0
1040
0.0
1040
0.0
1002
}
  0
ENDBLK
  5
118
  8
0
  0
BLOCK
  8
0
  2
*U2
 70
     1
 10
0.0
 20
0.0
 30
0.0
  3
*U2
  1

  0
SOLID
  5
129
  8
0
 10
3.235238063781452
 20
12.07407282861328
 30
0.0
 11
51.76380902050411
 21
193.1851652578135
 31
0.0
 12
3.235238063781452
 22
193.1851652578135
 32
0.0
 13
3.235238063781452
 23
193.1851652578135
 33
0.0
210
0.0
220
0.0
230
-1.0
  0
SOLID
  5
12A
  8
0
 10
3.235238063781452
 20
12.07407282861328
 30
0.0
 11
3.235238063781452
 21
193.1851652578135
 31
0.0
 12
1.763809020504112
 22
193.1851652578135
 32
0.0
 13
1.763809020504112
 23
193.1851652578135
 33
0.0
210
0.0
220
0.0
230
-1.0
  0
ENDBLK
  5
12C
  8
0
  0
BLOCK
  8
0
  2
*U3
 70
     1
 10
0.0
 20
0.0
 30
0.0
  3
*U3
  1

  0
SOLID
  5
12E
  8
0
 10
-51.76380902050417
 20
-193.1851652578138
 30
0.0
 11
-3.235238063784124
 21
-12.07407282861254
 31
0.0
 12
-51.76380902050417
 22
-101.2772594236996
 32
0.0
 13
-51.76380902050417
 23
-101.2772594236996
 33
0.0
210
0.0
220
0.0
230
-1.0
  0
SOLID
  5
12F
  8
0
 10
-51.76380902050417
 20
-193.1851652578138
 30
0.0
 11
-51.76380902050417
 21
-101.2772594236996
 31
0.0
 12
-101.7638090205042
 22
-193.1851652578138
 32
0.0
 13
-101.7638090205042
 23
-193.1851652578138
 33
0.0
210
0.0
220
0.0
230
-1.0
  0
ENDBLK
  5
131
  8
0
  0
ENDSEC
  0
SECTION
  2
ENTITIES
  0
INSERT
  5
113
  8
0
  2
NRE-58
 10
134.3175751427951
 20
-144.6000307712023
 30
0.0
  0
ENDSEC
  0
EOF
