  0
SECTION
  2
HEADER
  9
$ACADVER
  1
AC1009
  9
$DWGCODEPAGE
  3
ansi_1252
  9
$INSBASE
 10
0.0
 20
0.0
 30
0.0
  9
$EXTMIN
 10
-39.01806440322844
 20
-196.1570560806477
 30
0.0
  9
$EXTMAX
 10
625.9819355967717
 20
196.1570560806547
 30
0.7708042923136685
  9
$LIMMIN
 10
0.0
 20
0.0
  9
$LIMMAX
 10
420.0
 20
297.0
  9
$ORTHOMODE
 70
     0
  9
$REGENMODE
 70
     1
  9
$FILLMODE
 70
     1
  9
$QTEXTMODE
 70
     0
  9
$MIRRTEXT
 70
     0
  9
$DRAGMODE
 70
     2
  9
$LTSCALE
 40
1.0
  9
$OSMODE
 70
    37
  9
$ATTMODE
 70
     1
  9
$TEXTSIZE
 40
2.5
  9
$TRACEWID
 40
1.0
  9
$TEXTSTYLE
  7
STANDARD
  9
$CLAYER
  8
0
  9
$CELTYPE
  6
BYLAYER
  9
$CECOLOR
 62
   256
  9
$DIMSCALE
 40
1.0
  9
$DIMASZ
 40
2.5
  9
$DIMEXO
 40
0.625
  9
$DIMDLI
 40
3.75
  9
$DIMRND
 40
0.0
  9
$DIMDLE
 40
0.0
  9
$DIMEXE
 40
1.25
  9
$DIMTP
 40
0.0
  9
$DIMTM
 40
0.0
  9
$DIMTXT
 40
2.5
  9
$DIMCEN
 40
2.5
  9
$DIMTSZ
 40
0.0
  9
$DIMTOL
 70
     0
  9
$DIMLIM
 70
     0
  9
$DIMTIH
 70
     0
  9
$DIMTOH
 70
     0
  9
$DIMSE1
 70
     0
  9
$DIMSE2
 70
     0
  9
$DIMTAD
 70
     1
  9
$DIMZIN
 70
     8
  9
$DIMBLK
  1

  9
$DIMASO
 70
     1
  9
$DIMSHO
 70
     1
  9
$DIMPOST
  1

  9
$DIMAPOST
  1

  9
$DIMALT
 70
     0
  9
$DIMALTD
 70
     3
  9
$DIMALTF
 40
0.03937007874016
  9
$DIMLFAC
 40
1.0
  9
$DIMTOFL
 70
     1
  9
$DIMTVP
 40
0.0
  9
$DIMTIX
 70
     0
  9
$DIMSOXD
 70
     0
  9
$DIMSAH
 70
     0
  9
$DIMBLK1
  1

  9
$DIMBLK2
  1

  9
$DIMSTYLE
  2
ISO-25
  9
$DIMCLRD
 70
     0
  9
$DIMCLRE
 70
     0
  9
$DIMCLRT
 70
     0
  9
$DIMTFAC
 40
1.0
  9
$DIMGAP
 40
0.625
  9
$LUNITS
 70
     2
  9
$LUPREC
 70
     4
  9
$SKETCHINC
 40
1.0
  9
$FILLETRAD
 40
0.0
  9
$AUNITS
 70
     0
  9
$AUPREC
 70
     0
  9
$MENU
  1
.
  9
$ELEVATION
 40
0.0
  9
$PELEVATION
 40
0.0
  9
$THICKNESS
 40
0.0
  9
$LIMCHECK
 70
     0
  9
$CHAMFERA
 40
0.0
  9
$CHAMFERB
 40
0.0
  9
$SKPOLY
 70
     0
  9
$TDCREATE
 40
2453353.758792488
  9
$TDUPDATE
 40
2458080.087354074
  9
$TDINDWG
 40
2440852.080755556
  9
$TDUSRTIMER
 40
2440852.080755556
  9
$USRTIMER
 70
     1
  9
$ANGBASE
 50
0.0
  9
$ANGDIR
 70
     0
  9
$PDMODE
 70
     0
  9
$PDSIZE
 40
0.0
  9
$PLINEWID
 40
9.0
  9
$COORDS
 70
     1
  9
$SPLFRAME
 70
     0
  9
$SPLINETYPE
 70
     6
  9
$SPLINESEGS
 70
     8
  9
$ATTDIA
 70
     0
  9
$ATTREQ
 70
     1
  9
$HANDLING
 70
     1
  9
$HANDSEED
  5
12F
  9
$SURFTAB1
 70
     6
  9
$SURFTAB2
 70
     6
  9
$SURFTYPE
 70
     6
  9
$SURFU
 70
     6
  9
$SURFV
 70
     6
  9
$UCSNAME
  2

  9
$UCSORG
 10
0.0
 20
0.0
 30
0.0
  9
$UCSXDIR
 10
1.0
 20
0.0
 30
0.0
  9
$UCSYDIR
 10
0.0
 20
1.0
 30
0.0
  9
$PUCSNAME
  2

  9
$PUCSORG
 10
0.0
 20
0.0
 30
0.0
  9
$PUCSXDIR
 10
1.0
 20
0.0
 30
0.0
  9
$PUCSYDIR
 10
0.0
 20
1.0
 30
0.0
  9
$USERI1
 70
     0
  9
$USERI2
 70
     0
  9
$USERI3
 70
     0
  9
$USERI4
 70
     0
  9
$USERI5
 70
     0
  9
$USERR1
 40
0.0
  9
$USERR2
 40
0.0
  9
$USERR3
 40
0.0
  9
$USERR4
 40
0.0
  9
$USERR5
 40
0.0
  9
$WORLDVIEW
 70
     1
  9
$SHADEDGE
 70
     3
  9
$SHADEDIF
 70
    70
  9
$TILEMODE
 70
     1
  9
$MAXACTVP
 70
    64
  9
$PLIMCHECK
 70
     0
  9
$PEXTMIN
 10
1.000000000000000E+20
 20
1.000000000000000E+20
 30
1.000000000000000E+20
  9
$PEXTMAX
 10
-1.000000000000000E+20
 20
-1.000000000000000E+20
 30
-1.000000000000000E+20
  9
$PLIMMIN
 10
0.0
 20
0.0
  9
$PLIMMAX
 10
420.0
 20
297.0
  9
$UNITMODE
 70
     0
  9
$VISRETAIN
 70
     1
  9
$PLINEGEN
 70
     0
  9
$PSLTSCALE
 70
     1
  0
ENDSEC
  0
SECTION
  2
TABLES
  0
TABLE
  2
VPORT
 70
     1
  0
VPORT
  2
*ACTIVE
 70
     0
 10
0.0
 20
0.0
 11
1.0
 21
1.0
 12
312.9105637484133
 22
242.7823363029847
 13
0.0
 23
0.0
 14
10.0
 24
10.0
 15
10.0
 25
10.0
 16
0.0
 26
0.0
 36
1.0
 17
0.0
 27
0.0
 37
0.0
 40
1922.400730954836
 41
1.664827586206897
 42
50.0
 43
0.0
 44
0.0
 50
0.0
 51
0.0
 71
    16
 72
  1000
 73
     1
 74
     3
 75
     0
 76
     0
 77
     0
 78
     0
  0
ENDTAB
  0
TABLE
  2
LTYPE
 70
     1
  0
LTYPE
  2
CONTINUOUS
 70
     0
  3
Solid line
 72
    65
 73
     0
 40
0.0
  0
ENDTAB
  0
TABLE
  2
LAYER
 70
     2
  0
LAYER
  2
0
 70
     0
 62
     7
  6
CONTINUOUS
  0
LAYER
  2
INFO
 70
     0
 62
    -3
  6
CONTINUOUS
  0
ENDTAB
  0
TABLE
  2
STYLE
 70
     1
  0
STYLE
  2
STANDARD
 70
     0
 40
0.0
 41
1.0
 50
0.0
 71
     0
 42
2.5
  3
txt
  4

  0
ENDTAB
  0
TABLE
  2
VIEW
 70
     0
  0
ENDTAB
  0
TABLE
  2
UCS
 70
     0
  0
ENDTAB
  0
TABLE
  2
APPID
 70
     1
  0
APPID
  2
ACAD
 70
     0
  0
ENDTAB
  0
TABLE
  2
DIMSTYLE
 70
     2
  0
DIMSTYLE
  2
STANDARD
 70
     0
  3

  4

  5

  6

  7

 40
1.0
 41
0.18
 42
0.0625
 43
0.38
 44
0.18
 45
0.0
 46
0.0
 47
0.0
 48
0.0
140
0.18
141
0.09
142
0.0
143
25.4
144
1.0
145
0.0
146
1.0
147
0.09
 71
     0
 72
     0
 73
     1
 74
     1
 75
     0
 76
     0
 77
     0
 78
     0
170
     0
171
     2
172
     0
173
     0
174
     0
175
     0
176
     0
177
     0
178
     0
  0
DIMSTYLE
  2
ISO-25
 70
     0
  3

  4

  5

  6

  7

 40
1.0
 41
2.5
 42
0.625
 43
3.75
 44
1.25
 45
0.0
 46
0.0
 47
0.0
 48
0.0
140
2.5
141
2.5
142
0.0
143
0.03937007874016
144
1.0
145
0.0
146
1.0
147
0.625
 71
     0
 72
     0
 73
     0
 74
     0
 75
     0
 76
     0
 77
     1
 78
     8
170
     0
171
     3
172
     1
173
     0
174
     0
175
     0
176
     0
177
     0
178
     0
  0
ENDTAB
  0
ENDSEC
  0
SECTION
  2
BLOCKS
  0
BLOCK
  8
0
  2
$MODEL_SPACE
 70
     0
 10
0.0
 20
0.0
 30
0.0
  3
$MODEL_SPACE
  1

  0
ENDBLK
  5
21
  8
0
  0
BLOCK
 67
     1
  8
0
  2
$PAPER_SPACE
 70
     0
 10
0.0
 20
0.0
 30
0.0
  3
$PAPER_SPACE
  1

  0
ENDBLK
  5
76
 67
     1
  8
0
  0
BLOCK
  8
0
  2
NRE-203
 70
     0
 10
0.0
 20
0.0
 30
0.0
  3
NRE-203
  1

  0
LINE
  5
32
  8
0
 10
-51.76380902050414
 20
193.1851652578134
 30
0.0
 11
663.2914270615124
 21
193.1851652578134
 31
0.0
  0
LINE
  5
33
  8
0
 10
51.76380902050414
 20
-193.1851652578134
 30
0.0
 11
-51.76380902050414
 21
193.1851652578134
 31
0.0
  0
LINE
  5
34
  8
0
 10
51.76380902050414
 20
-193.1851652578134
 30
0.0
 11
559.7638090205041
 21
-193.1851652578134
 31
0.0
  0
LINE
  5
35
  8
0
 10
559.7638090205041
 20
-193.1851652578134
 30
0.0
 11
663.2914270615124
 21
193.1851652578134
 31
0.0
  0
TEXT
  5
36
  8
0
 10
160.0489904724419
 20
-129.3439798085065
 30
0.0
 40
50.0
  1
NRE-203
  0
TEXT
  5
37
  8
0
 10
207.4681253012977
 20
-45.28278624826226
 30
0.0
 40
50.0
  1
FraJa
  0
POLYLINE
  5
38
  8
0
 66
     1
 10
0.0
 20
0.0
 30
0.0
 40
9.0
 41
9.0
  0
VERTEX
  5
11A
  8
0
 10
0.0
 20
0.0
 30
0.0
 42
-0.1309503342188388
  0
VERTEX
  5
11B
  8
0
 10
611.5276180410083
 20
0.0
 30
0.0
 42
-7.636482991550389
  0
SEQEND
  5
119
  8
0
  0
TEXT
  5
39
  8
0
 62
     2
 10
12.88095243008053
 20
144.4926400038262
 30
0.0
 40
25.0
  1
FJ 28.03.2008
  0
TEXT
  5
3A
  8
0
 10
163.1732158155039
 20
73.96374348915401
 30
0.0
 40
50.0
  1
715, 30°
  0
ENDBLK
  5
10D
  8
0
  0
BLOCK
  8
0
  2
NRE-661
 70
     0
 10
0.0
 20
0.0
 30
0.0
  3
NRE-661
  1

  0
TEXT
  5
FC
  8
0
 10
142.6212758773969
 20
-137.3446244882643
 30
0.369441688742877
 40
50.0
  1
NRE-661
210
0.0
220
0.001994988308979373
230
0.9999980100088435
  0
TEXT
  5
FD
  8
0
 10
190.0404107062526
 20
-53.28343092802015
 30
0.3694416887428736
 40
50.0
  1
MiMal
210
0.0
220
0.001994988308979373
230
0.9999980100088435
  0
TEXT
  5
FE
  8
0
 62
     2
 10
25.62669704735629
 20
147.4641404758514
 30
0.391331033604701
 40
25.0
  1
DL 11/2017
210
0.0
220
0.001994988308979373
230
0.9999980100088435
  0
TEXT
  5
FF
  8
0
 10
71.68337406294393
 20
76.93524396117928
 30
0.3913310336047037
 40
50.0
  1
580, 22,5°
210
0.0
220
0.001994988308979373
230
0.9999980100088435
  0
POLYLINE
  5
100
  8
0
 66
     1
 10
0.0
 20
0.0
 30
0.0
  0
VERTEX
  5
11D
  8
0
 10
-39.01806440322844
 20
196.1570560806455
 30
0.0
  0
VERTEX
  5
11E
  8
0
 10
625.9819355967717
 20
196.1570560806455
 30
0.0
  0
VERTEX
  5
11F
  8
0
 10
547.9458067903257
 20
-196.1570560806477
 30
0.0
  0
VERTEX
  5
120
  8
0
 10
39.01806440322844
 20
-196.1570560806455
 30
0.0
  0
VERTEX
  5
121
  8
0
 10
-39.01806440322844
 20
196.1570560806455
 30
0.0
  0
SEQEND
  5
11C
  8
0
  0
LINE
  5
101
  8
0
 10
0.0
 20
0.0
 30
0.0
 11
10.98193559677156
 21
196.1570560806455
 31
0.0
  0
LINE
  5
102
  8
0
 10
586.9638711935487
 20
-0.00000000000108
 30
0.0
 11
575.9819355967717
 21
196.1570560806455
 31
0.0
  0
POLYLINE
  5
103
  8
0
 66
     1
 10
0.0
 20
0.0
 30
0.0
 40
9.0
 41
9.0
  0
VERTEX
  5
123
  8
0
 10
0.0
 20
0.0
 30
0.0
 42
-0.098491403357164
  0
VERTEX
  5
124
  8
0
 10
586.9638711935487
 20
-0.00000000000108
 30
0.0
 42
-10.15317038760889
  0
SEQEND
  5
122
  8
0
  0
INSERT
  5
104
  8
0
  2
*U3
 10
0.0
 20
0.0
 30
0.0
1001
ACAD
1002
{
1000
R14_HATCH_DATA
1000
104
1011
1.0
1021
0.0
1031
0.0
1021
0.0
1031
0.0
1011
0.0
1021
1.0
1031
0.0
1021
1.0
1031
0.0
1011
0.0
1021
0.0
1031
1.0
1021
0.0
1031
1.0
1040
0.7708042923136685
1010
0.0
1020
0.0
1030
1.0
1020
0.0
1030
1.0
1000
SOLID
1070
     1
1070
     1
1071
        1
1071
        7
1070
     0
1070
     1
1071
        3
1040
10.98193559677156
1040
196.1570560806455
1040
-39.01806440322844
1040
196.1570560806455
1040
0.0
1040
0.0
1071
        2
1005
100
1005
101
1070
     0
1070
     1
1040
0.0
1071
        1
1040
0.0
1040
0.0
1040
0.0
1002
}
  0
INSERT
  5
105
  8
0
  2
*U4
 10
0.0
 20
0.0
 30
0.0
1001
ACAD
1002
{
1000
R14_HATCH_DATA
1000
105
1011
1.0
1021
0.0
1031
0.0
1021
0.0
1031
0.0
1011
0.0
1021
1.0
1031
0.0
1021
1.0
1031
0.0
1011
0.0
1021
0.0
1031
1.0
1021
0.0
1031
1.0
1040
0.7708042923136685
1010
0.0
1020
0.0
1030
1.0
1020
0.0
1030
1.0
1000
SOLID
1070
     1
1070
     1
1071
        1
1071
        7
1070
     0
1070
     1
1071
        3
1040
575.9819355967717
1040
196.1570560806534
1040
625.9819355967717
1040
196.1570560806547
1040
586.9638711935487
1040
0.0000000000081855
1071
        0
1070
     0
1070
     1
1040
0.0
1071
        1
1040
0.0
1040
0.0
1040
0.0
1002
}
  0
ENDBLK
  5
10F
  8
0
  0
BLOCK
  8
0
  2
*U3
 70
     1
 10
0.0
 20
0.0
 30
0.0
  3
*U3
  1

  0
SOLID
  5
126
  8
0
 10
0.0
 20
0.0000000000000087
 30
-0.7708042923136685
 11
39.01806440322844
 21
196.1570560806455
 31
-0.7708042923136685
 12
0.0
 22
196.1570560806455
 32
-0.7708042923136685
 13
0.0
 23
196.1570560806455
 33
-0.7708042923136685
210
0.0
220
0.0
230
-1.0
  0
SOLID
  5
127
  8
0
 10
0.0
 20
0.0000000000000087
 30
-0.7708042923136685
 11
0.0
 21
196.1570560806455
 31
-0.7708042923136685
 12
-10.98193559677156
 22
196.1570560806455
 32
-0.7708042923136685
 13
-10.98193559677156
 23
196.1570560806455
 33
-0.7708042923136685
210
0.0
220
0.0
230
-1.0
  0
ENDBLK
  5
129
  8
0
  0
BLOCK
  8
0
  2
*U4
 70
     1
 10
0.0
 20
0.0
 30
0.0
  3
*U4
  1

  0
SOLID
  5
12B
  8
0
 10
586.9638711935487
 20
0.0000000000081749
 30
0.7708042923136685
 11
575.9819355967717
 21
196.1570560806534
 31
0.7708042923136685
 12
586.9638711935487
 22
196.1570560806537
 32
0.7708042923136685
 13
586.9638711935487
 23
196.1570560806537
 33
0.7708042923136685
  0
SOLID
  5
12C
  8
0
 10
586.9638711935487
 20
0.0000000000081749
 30
0.7708042923136685
 11
586.9638711935487
 21
196.1570560806537
 31
0.7708042923136685
 12
625.9819355967717
 22
196.1570560806547
 32
0.7708042923136685
 13
625.9819355967717
 23
196.1570560806547
 33
0.7708042923136685
  0
ENDBLK
  5
12E
  8
0
  0
ENDSEC
  0
SECTION
  2
ENTITIES
  0
INSERT
  5
108
  8
0
  2
NRE-661
 10
0.0
 20
0.0
 30
0.0
  0
ENDSEC
  0
EOF
