  0
SECTION
  2
HEADER
  9
$ACADVER
  1
AC1009
  9
$DWGCODEPAGE
  3
ansi_1252
  9
$INSBASE
 10
0.0
 20
0.0
 30
0.0
  9
$EXTMIN
 10
0.0
 20
-200.0
 30
0.0
  9
$EXTMAX
 10
400.0
 20
200.0
 30
0.0
  9
$LIMMIN
 10
0.0
 20
0.0
  9
$LIMMAX
 10
420.0
 20
297.0
  9
$ORTHOMODE
 70
     0
  9
$REGENMODE
 70
     1
  9
$FILLMODE
 70
     1
  9
$QTEXTMODE
 70
     0
  9
$MIRRTEXT
 70
     0
  9
$DRAGMODE
 70
     2
  9
$LTSCALE
 40
1.0
  9
$OSMODE
 70
    37
  9
$ATTMODE
 70
     1
  9
$TEXTSIZE
 40
50.0
  9
$TRACEWID
 40
1.0
  9
$TEXTSTYLE
  7
STANDARD
  9
$CLAYER
  8
0
  9
$CELTYPE
  6
BYLAYER
  9
$CECOLOR
 62
   256
  9
$DIMSCALE
 40
1.0
  9
$DIMASZ
 40
2.5
  9
$DIMEXO
 40
0.625
  9
$DIMDLI
 40
3.75
  9
$DIMRND
 40
0.0
  9
$DIMDLE
 40
0.0
  9
$DIMEXE
 40
1.25
  9
$DIMTP
 40
0.0
  9
$DIMTM
 40
0.0
  9
$DIMTXT
 40
2.5
  9
$DIMCEN
 40
2.5
  9
$DIMTSZ
 40
0.0
  9
$DIMTOL
 70
     0
  9
$DIMLIM
 70
     0
  9
$DIMTIH
 70
     0
  9
$DIMTOH
 70
     0
  9
$DIMSE1
 70
     0
  9
$DIMSE2
 70
     0
  9
$DIMTAD
 70
     1
  9
$DIMZIN
 70
     8
  9
$DIMBLK
  1

  9
$DIMASO
 70
     1
  9
$DIMSHO
 70
     1
  9
$DIMPOST
  1

  9
$DIMAPOST
  1

  9
$DIMALT
 70
     0
  9
$DIMALTD
 70
     3
  9
$DIMALTF
 40
0.03937007874016
  9
$DIMLFAC
 40
1.0
  9
$DIMTOFL
 70
     1
  9
$DIMTVP
 40
0.0
  9
$DIMTIX
 70
     0
  9
$DIMSOXD
 70
     0
  9
$DIMSAH
 70
     0
  9
$DIMBLK1
  1

  9
$DIMBLK2
  1

  9
$DIMSTYLE
  2
STANDARD
  9
$DIMCLRD
 70
     0
  9
$DIMCLRE
 70
     0
  9
$DIMCLRT
 70
     0
  9
$DIMTFAC
 40
1.0
  9
$DIMGAP
 40
0.625
  9
$LUNITS
 70
     2
  9
$LUPREC
 70
     4
  9
$SKETCHINC
 40
1.0
  9
$FILLETRAD
 40
0.0
  9
$AUNITS
 70
     0
  9
$AUPREC
 70
     0
  9
$MENU
  1
.
  9
$ELEVATION
 40
0.0
  9
$PELEVATION
 40
0.0
  9
$THICKNESS
 40
0.0
  9
$LIMCHECK
 70
     0
  9
$CHAMFERA
 40
0.0
  9
$CHAMFERB
 40
0.0
  9
$SKPOLY
 70
     0
  9
$TDCREATE
 40
2453353.800459155
  9
$TDUPDATE
 40
2454594.389561481
  9
$TDINDWG
 40
4881704.058228148
  9
$TDUSRTIMER
 40
2440852.062373333
  9
$USRTIMER
 70
     1
  9
$ANGBASE
 50
0.0
  9
$ANGDIR
 70
     0
  9
$PDMODE
 70
     0
  9
$PDSIZE
 40
0.0
  9
$PLINEWID
 40
9.0
  9
$COORDS
 70
     1
  9
$SPLFRAME
 70
     0
  9
$SPLINETYPE
 70
     6
  9
$SPLINESEGS
 70
     8
  9
$ATTDIA
 70
     0
  9
$ATTREQ
 70
     1
  9
$HANDLING
 70
     1
  9
$HANDSEED
  5
143
  9
$SURFTAB1
 70
     6
  9
$SURFTAB2
 70
     6
  9
$SURFTYPE
 70
     6
  9
$SURFU
 70
     6
  9
$SURFV
 70
     6
  9
$UCSNAME
  2

  9
$UCSORG
 10
0.0
 20
0.0
 30
0.0
  9
$UCSXDIR
 10
1.0
 20
0.0
 30
0.0
  9
$UCSYDIR
 10
0.0
 20
1.0
 30
0.0
  9
$PUCSNAME
  2

  9
$PUCSORG
 10
0.0
 20
0.0
 30
0.0
  9
$PUCSXDIR
 10
1.0
 20
0.0
 30
0.0
  9
$PUCSYDIR
 10
0.0
 20
1.0
 30
0.0
  9
$USERI1
 70
     0
  9
$USERI2
 70
     0
  9
$USERI3
 70
     0
  9
$USERI4
 70
     0
  9
$USERI5
 70
     0
  9
$USERR1
 40
0.0
  9
$USERR2
 40
0.0
  9
$USERR3
 40
0.0
  9
$USERR4
 40
0.0
  9
$USERR5
 40
0.0
  9
$WORLDVIEW
 70
     1
  9
$SHADEDGE
 70
     3
  9
$SHADEDIF
 70
    70
  9
$TILEMODE
 70
     1
  9
$MAXACTVP
 70
    64
  9
$PLIMCHECK
 70
     0
  9
$PEXTMIN
 10
0.0
 20
0.0
 30
0.0
  9
$PEXTMAX
 10
0.0
 20
0.0
 30
0.0
  9
$PLIMMIN
 10
0.0
 20
0.0
  9
$PLIMMAX
 10
12.0
 20
9.0
  9
$UNITMODE
 70
     0
  9
$VISRETAIN
 70
     1
  9
$PLINEGEN
 70
     0
  9
$PSLTSCALE
 70
     1
  0
ENDSEC
  0
SECTION
  2
TABLES
  0
TABLE
  2
VPORT
 70
     1
  0
VPORT
  2
*ACTIVE
 70
     0
 10
0.0
 20
0.0
 11
1.0
 21
1.0
 12
197.8691209163792
 22
-2.144906767900227
 13
0.0
 23
0.0
 14
0.5
 24
0.5
 15
0.5
 25
0.5
 16
0.0
 26
0.0
 36
1.0
 17
0.0
 27
0.0
 37
0.0
 40
829.3731406646435
 41
1.333333333333333
 42
50.0
 43
0.0
 44
0.0
 50
0.0
 51
0.0
 71
    16
 72
   100
 73
     0
 74
     1
 75
     0
 76
     0
 77
     0
 78
     0
  0
ENDTAB
  0
TABLE
  2
LTYPE
 70
     1
  0
LTYPE
  2
CONTINUOUS
 70
     0
  3
CONTINUOUS
 72
    65
 73
     0
 40
0.0
  0
ENDTAB
  0
TABLE
  2
LAYER
 70
     1
  0
LAYER
  2
0
 70
     0
 62
     7
  6
CONTINUOUS
  0
ENDTAB
  0
TABLE
  2
STYLE
 70
     1
  0
STYLE
  2
STANDARD
 70
     0
 40
0.0
 41
1.0
 50
0.0
 71
     0
 42
2.5
  3
txt
  4

  0
ENDTAB
  0
TABLE
  2
VIEW
 70
     0
  0
ENDTAB
  0
TABLE
  2
UCS
 70
     0
  0
ENDTAB
  0
TABLE
  2
APPID
 70
     1
  0
APPID
  2
ACAD
 70
     0
  0
ENDTAB
  0
TABLE
  2
DIMSTYLE
 70
     1
  0
DIMSTYLE
  2
STANDARD
 70
     0
  3

  4

  5

  6

  7

 40
1.0
 41
0.18
 42
0.0625
 43
0.38
 44
0.18
 45
0.0
 46
0.0
 47
0.0
 48
0.0
140
0.18
141
0.09
142
0.0
143
25.4
144
1.0
145
0.0
146
1.0
147
0.09
 71
     0
 72
     0
 73
     1
 74
     1
 75
     0
 76
     0
 77
     0
 78
     0
170
     0
171
     2
172
     0
173
     0
174
     0
175
     0
176
     0
177
     0
178
     0
  0
ENDTAB
  0
ENDSEC
  0
SECTION
  2
BLOCKS
  0
BLOCK
  8
0
  2
$MODEL_SPACE
 70
     0
 10
0.0
 20
0.0
 30
0.0
  3
$MODEL_SPACE
  1

  0
ENDBLK
  5
21
  8
0
  0
BLOCK
 67
     1
  8
0
  2
$PAPER_SPACE
 70
     0
 10
0.0
 20
0.0
 30
0.0
  3
$PAPER_SPACE
  1

  0
ENDBLK
  5
76
 67
     1
  8
0
  0
BLOCK
  8
0
  2
NRE-404
 70
     0
 10
0.0
 20
0.0
 30
0.0
  3
NRE-404
  1

  0
LINE
  5
110
  8
0
 10
0.0
 20
200.0
 30
0.0
 11
0.0
 21
-200.0
 31
0.0
  0
LINE
  5
111
  8
0
 10
0.0
 20
-200.0
 30
0.0
 11
400.0
 21
-200.0
 31
0.0
  0
LINE
  5
112
  8
0
 10
400.0
 20
-200.0
 30
0.0
 11
400.0
 21
200.0
 31
0.0
  0
LINE
  5
113
  8
0
 10
400.0
 20
200.0
 30
0.0
 11
0.0
 21
200.0
 31
0.0
  0
POLYLINE
  5
114
  8
0
 66
     1
 10
0.0
 20
0.0
 30
0.0
 40
9.0
 41
9.0
  0
VERTEX
  5
13C
  8
0
 10
0.0
 20
0.0
 30
0.0
  0
VERTEX
  5
13D
  8
0
 10
400.0
 20
0.0
 30
0.0
  0
SEQEND
  5
13B
  8
0
  0
TEXT
  5
115
  8
0
 10
34.25548541997131
 20
-134.1095799631245
 30
0.0
 40
50.0
  1
NRE-404
  0
TEXT
  5
116
  8
0
 10
55.60240442832394
 20
35.15854380863927
 30
0.0
 40
50.0
  1
StWen
  0
TEXT
  5
117
  8
0
 62
     2
 10
12.05173673792704
 20
159.0508906205899
 30
0.0
 40
25.0
  1
DL 05/08
  0
TEXT
  5
118
  8
0
 10
125.5399363235655
 20
96.8308986268068
 30
0.0
 40
50.0
  1
400
  0
TEXT
  5
119
  8
0
 10
35.70797778540852
 20
-189.3042898497383
 30
0.0
 40
20.0
  1
HP Umrathshausen
  0
LINE
  5
11A
  8
0
 10
16.30757523672867
 20
-16.66983042227227
 30
0.0
 11
316.3075752367287
 21
-16.66983042227227
 31
0.0
  0
LINE
  5
11B
  8
0
 10
16.30757523672867
 20
-16.66983042227227
 30
0.0
 11
16.30757523672867
 21
-46.66983042227227
 31
0.0
  0
LINE
  5
11C
  8
0
 10
316.3075752367287
 20
-16.66983042227227
 30
0.0
 11
316.3075752367287
 21
-46.66983042227227
 31
0.0
  0
LINE
  5
11D
  8
0
 10
386.0985926837884
 20
-34.6700109212097
 30
0.0
 11
377.779481795299
 21
-19.19646466861647
 31
0.0
  0
LINE
  5
11E
  8
0
 10
385.5994460304801
 20
-19.36284688638531
 30
0.0
 11
376.9475707064494
 21
-35.50192201005754
 31
0.0
  0
LINE
  5
11F
  8
0
 10
381.7726550217749
 20
-26.79014908763108
 30
0.0
 11
381.7726550217749
 21
-50.97546826264713
 31
0.0
  0
LINE
  5
120
  8
0
 10
348.7607949033269
 20
-34.486468059394
 30
0.0
 11
340.4416840148375
 21
-19.01292180680078
 31
0.0
  0
LINE
  5
121
  8
0
 10
348.2616482500185
 20
-19.17930402456962
 30
0.0
 11
339.6097729259878
 21
-35.31837914824185
 31
0.0
  0
LINE
  5
122
  8
0
 10
344.4348572413134
 20
-26.60660622581538
 30
0.0
 11
344.4348572413134
 21
-50.79192540083143
 31
0.0
  0
LINE
  5
123
  8
0
 10
377.6242215526665
 20
36.80162344181476
 30
0.0
 11
385.9433324411559
 21
21.32807718922153
 31
0.0
  0
LINE
  5
124
  8
0
 10
378.1233682059749
 20
21.49445940699037
 30
0.0
 11
386.7752435300056
 21
37.6335345306626
 31
0.0
  0
LINE
  5
125
  8
0
 10
381.9501592146801
 20
28.92176160823614
 30
0.0
 11
381.9501592146801
 21
53.10708078325219
 31
0.0
  0
LINE
  5
126
  8
0
 10
342.2335710972565
 20
28.92176160823615
 30
0.0
 11
342.2335710972565
 21
53.10708078325219
 31
0.0
  0
LINE
  5
127
  8
0
 10
337.9076334352429
 20
36.80162344181476
 30
0.0
 11
346.2267443237323
 21
21.32807718922154
 31
0.0
  0
LINE
  5
128
  8
0
 10
338.4067800885513
 20
21.49445940699038
 30
0.0
 11
347.058655412582
 21
37.63353453066261
 31
0.0
  0
POLYLINE
  5
129
  8
0
 66
     1
 10
0.0
 20
0.0
 30
0.0
 70
     1
  0
VERTEX
  5
13F
  8
0
 10
182.3668192217129
 20
-29.44135597194986
 30
0.0
  0
VERTEX
  5
140
  8
0
 10
223.0366054539547
 20
-29.44135597194986
 30
0.0
  0
VERTEX
  5
141
  8
0
 10
223.0366054539547
 20
-49.77624908807071
 30
0.0
  0
VERTEX
  5
142
  8
0
 10
182.3668192217129
 20
-49.77624908807071
 30
0.0
  0
SEQEND
  5
13E
  8
0
  0
ENDBLK
  5
131
  8
0
  0
ENDSEC
  0
SECTION
  2
ENTITIES
  0
INSERT
  5
12C
  8
0
  2
NRE-404
 10
0.0
 20
0.0
 30
0.0
  0
ENDSEC
  0
EOF
