  0
SECTION
  2
HEADER
  9
$ACADVER
  1
AC1009
  9
$DWGCODEPAGE
  3
ansi_1252
  9
$INSBASE
 10
0.0
 20
0.0
 30
0.0
  9
$EXTMIN
 10
0.0
 20
-200.0
 30
0.0
  9
$EXTMAX
 10
899.9999999999999
 20
399.9886938285732
 30
0.0
  9
$LIMMIN
 10
0.0
 20
0.0
  9
$LIMMAX
 10
420.0
 20
297.0
  9
$ORTHOMODE
 70
     0
  9
$REGENMODE
 70
     1
  9
$FILLMODE
 70
     1
  9
$QTEXTMODE
 70
     0
  9
$MIRRTEXT
 70
     0
  9
$DRAGMODE
 70
     2
  9
$LTSCALE
 40
1.0
  9
$OSMODE
 70
    37
  9
$ATTMODE
 70
     1
  9
$TEXTSIZE
 40
50.0
  9
$TRACEWID
 40
1.0
  9
$TEXTSTYLE
  7
STANDARD
  9
$CLAYER
  8
0
  9
$CELTYPE
  6
BYLAYER
  9
$CECOLOR
 62
   256
  9
$DIMSCALE
 40
1.0
  9
$DIMASZ
 40
2.5
  9
$DIMEXO
 40
0.625
  9
$DIMDLI
 40
3.75
  9
$DIMRND
 40
0.0
  9
$DIMDLE
 40
0.0
  9
$DIMEXE
 40
1.25
  9
$DIMTP
 40
0.0
  9
$DIMTM
 40
0.0
  9
$DIMTXT
 40
2.5
  9
$DIMCEN
 40
2.5
  9
$DIMTSZ
 40
0.0
  9
$DIMTOL
 70
     0
  9
$DIMLIM
 70
     0
  9
$DIMTIH
 70
     0
  9
$DIMTOH
 70
     0
  9
$DIMSE1
 70
     0
  9
$DIMSE2
 70
     0
  9
$DIMTAD
 70
     1
  9
$DIMZIN
 70
     8
  9
$DIMBLK
  1

  9
$DIMASO
 70
     1
  9
$DIMSHO
 70
     1
  9
$DIMPOST
  1

  9
$DIMAPOST
  1

  9
$DIMALT
 70
     0
  9
$DIMALTD
 70
     3
  9
$DIMALTF
 40
0.03937007874016
  9
$DIMLFAC
 40
1.0
  9
$DIMTOFL
 70
     1
  9
$DIMTVP
 40
0.0
  9
$DIMTIX
 70
     0
  9
$DIMSOXD
 70
     0
  9
$DIMSAH
 70
     0
  9
$DIMBLK1
  1

  9
$DIMBLK2
  1

  9
$DIMSTYLE
  2
STANDARD
  9
$DIMCLRD
 70
     0
  9
$DIMCLRE
 70
     0
  9
$DIMCLRT
 70
     0
  9
$DIMTFAC
 40
1.0
  9
$DIMGAP
 40
0.625
  9
$LUNITS
 70
     2
  9
$LUPREC
 70
     4
  9
$SKETCHINC
 40
1.0
  9
$FILLETRAD
 40
600.0
  9
$AUNITS
 70
     0
  9
$AUPREC
 70
     0
  9
$MENU
  1
.
  9
$ELEVATION
 40
0.0
  9
$PELEVATION
 40
0.0
  9
$THICKNESS
 40
0.0
  9
$LIMCHECK
 70
     0
  9
$CHAMFERA
 40
0.0
  9
$CHAMFERB
 40
0.0
  9
$SKPOLY
 70
     0
  9
$TDCREATE
 40
2453353.800459155
  9
$TDUPDATE
 40
4914344.163017778
  9
$TDINDWG
 40
2440852.080755556
  9
$TDUSRTIMER
 40
2440852.062373333
  9
$USRTIMER
 70
     1
  9
$ANGBASE
 50
0.0
  9
$ANGDIR
 70
     0
  9
$PDMODE
 70
     0
  9
$PDSIZE
 40
0.0
  9
$PLINEWID
 40
9.0
  9
$COORDS
 70
     1
  9
$SPLFRAME
 70
     0
  9
$SPLINETYPE
 70
     6
  9
$SPLINESEGS
 70
     8
  9
$ATTDIA
 70
     0
  9
$ATTREQ
 70
     1
  9
$HANDLING
 70
     1
  9
$HANDSEED
  5
1FB
  9
$SURFTAB1
 70
     6
  9
$SURFTAB2
 70
     6
  9
$SURFTYPE
 70
     6
  9
$SURFU
 70
     6
  9
$SURFV
 70
     6
  9
$UCSNAME
  2

  9
$UCSORG
 10
0.0
 20
0.0
 30
0.0
  9
$UCSXDIR
 10
1.0
 20
0.0
 30
0.0
  9
$UCSYDIR
 10
0.0
 20
1.0
 30
0.0
  9
$PUCSNAME
  2

  9
$PUCSORG
 10
0.0
 20
0.0
 30
0.0
  9
$PUCSXDIR
 10
1.0
 20
0.0
 30
0.0
  9
$PUCSYDIR
 10
0.0
 20
1.0
 30
0.0
  9
$USERI1
 70
     0
  9
$USERI2
 70
     0
  9
$USERI3
 70
     0
  9
$USERI4
 70
     0
  9
$USERI5
 70
     0
  9
$USERR1
 40
0.0
  9
$USERR2
 40
0.0
  9
$USERR3
 40
0.0
  9
$USERR4
 40
0.0
  9
$USERR5
 40
0.0
  9
$WORLDVIEW
 70
     1
  9
$SHADEDGE
 70
     3
  9
$SHADEDIF
 70
    70
  9
$TILEMODE
 70
     1
  9
$MAXACTVP
 70
    48
  9
$PLIMCHECK
 70
     0
  9
$PEXTMIN
 10
0.0
 20
0.0
 30
0.0
  9
$PEXTMAX
 10
0.0
 20
0.0
 30
0.0
  9
$PLIMMIN
 10
0.0
 20
0.0
  9
$PLIMMAX
 10
0.0
 20
0.0
  9
$UNITMODE
 70
     0
  9
$VISRETAIN
 70
     1
  9
$PLINEGEN
 70
     0
  9
$PSLTSCALE
 70
     1
  0
ENDSEC
  0
SECTION
  2
TABLES
  0
TABLE
  2
VPORT
 70
     1
  0
VPORT
  2
*ACTIVE
 70
     0
 10
0.0
 20
0.0
 11
1.0
 21
1.0
 12
692.8842389579136
 22
74.43190232998039
 13
0.0
 23
0.0
 14
0.5
 24
0.5
 15
0.5
 25
0.5
 16
0.0
 26
0.0
 36
1.0
 17
0.0
 27
0.0
 37
0.0
 40
1244.1105732558
 41
2.587131367292225
 42
50.0
 43
0.0
 44
0.0
 50
0.0
 51
0.0
 71
    16
 72
   100
 73
     0
 74
     1
 75
     0
 76
     0
 77
     0
 78
     0
  0
ENDTAB
  0
TABLE
  2
LTYPE
 70
     1
  0
LTYPE
  2
CONTINUOUS
 70
     0
  3
CONTINUOUS
 72
    65
 73
     0
 40
0.0
  0
ENDTAB
  0
TABLE
  2
LAYER
 70
     1
  0
LAYER
  2
0
 70
     0
 62
     7
  6
CONTINUOUS
  0
ENDTAB
  0
TABLE
  2
STYLE
 70
     1
  0
STYLE
  2
STANDARD
 70
     0
 40
0.0
 41
1.0
 50
0.0
 71
     0
 42
2.5
  3
txt
  4

  0
ENDTAB
  0
TABLE
  2
VIEW
 70
     0
  0
ENDTAB
  0
TABLE
  2
UCS
 70
     0
  0
ENDTAB
  0
TABLE
  2
APPID
 70
     1
  0
APPID
  2
ACAD
 70
     0
  0
ENDTAB
  0
TABLE
  2
DIMSTYLE
 70
     1
  0
DIMSTYLE
  2
STANDARD
 70
     0
  3

  4

  5

  6

  7

 40
1.0
 41
0.18
 42
0.0625
 43
0.38
 44
0.18
 45
0.0
 46
0.0
 47
0.0
 48
0.0
140
0.18
141
0.09
142
0.0
143
25.4
144
1.0
145
0.0
146
1.0
147
0.09
 71
     0
 72
     0
 73
     1
 74
     1
 75
     0
 76
     0
 77
     0
 78
     0
170
     0
171
     2
172
     0
173
     0
174
     0
175
     0
176
     0
177
     0
178
     0
  0
ENDTAB
  0
ENDSEC
  0
SECTION
  2
BLOCKS
  0
BLOCK
  8
0
  2
$MODEL_SPACE
 70
     0
 10
0.0
 20
0.0
 30
0.0
  3
$MODEL_SPACE
  1

  0
ENDBLK
  5
21
  8
0
  0
BLOCK
 67
     1
  8
0
  2
$PAPER_SPACE
 70
     0
 10
0.0
 20
0.0
 30
0.0
  3
$PAPER_SPACE
  1

  0
ENDBLK
  5
76
 67
     1
  8
0
  0
BLOCK
  8
0
  2
_HP01
 70
     0
 10
0.0
 20
0.0
 30
0.0
  3
_HP01
  1

  0
LINE
  5
45
  8
0
 10
0.0
 20
0.0
 30
0.0
 11
0.0
 21
150.0
 31
0.0
  0
POLYLINE
  5
46
  8
0
 66
     1
 10
0.0
 20
0.0
 30
0.0
  0
VERTEX
  5
1EC
  8
0
 10
0.0
 20
150.0
 30
0.0
  0
VERTEX
  5
1ED
  8
0
 10
75.0
 20
150.0
 30
0.0
  0
VERTEX
  5
1EE
  8
0
 10
75.0
 20
125.0
 30
0.0
  0
VERTEX
  5
1EF
  8
0
 10
0.0
 20
125.0
 30
0.0
  0
VERTEX
  5
1F0
  8
0
 10
0.0
 20
150.0
 30
0.0
  0
SEQEND
  5
1EB
  8
0
  0
INSERT
  5
47
  8
0
  6
CONTINUOUS
  2
*U5
 10
0.0
 20
0.0
 30
0.0
1001
ACAD
1002
{
1000
R14_HATCH_DATA
1000
47
1011
1.0
1021
0.0
1031
0.0
1021
0.0
1031
0.0
1011
0.0
1021
1.0
1031
0.0
1021
1.0
1031
0.0
1011
0.0
1021
0.0
1031
1.0
1021
0.0
1031
1.0
1040
0.0
1010
0.0
1020
0.0
1030
1.0
1020
0.0
1030
1.0
1000
SOLID
1070
     1
1070
     1
1071
        1
1071
        1
1071
        4
1070
     1
1040
0.0
1040
150.0
1040
75.0
1040
150.0
1070
     1
1040
75.0
1040
150.0
1040
75.0
1040
125.0
1070
     1
1040
75.0
1040
125.0
1040
0.0
1040
125.0
1070
     1
1040
0.0
1040
125.0
1040
0.0
1040
150.0
1071
        1
1005
46
1070
     0
1070
     1
1071
        1
1040
0.0
1040
0.0
1040
0.0
1002
}
  0
ENDBLK
  5
1D1
  8
0
  0
BLOCK
  8
0
  2
A$C67EA1BCA
 70
     0
 10
0.0
 20
0.0
 30
0.0
  3
A$C67EA1BCA
  1

  0
TEXT
  5
197
  8
0
 10
0.0
 20
-0.0000014927904886
 30
0.0
 40
40.0
  1
F2
  0
ENDBLK
  5
1D3
  8
0
  0
BLOCK
  8
0
  2
A$C3E356AA6
 70
     0
 10
0.0
 20
0.0
 30
0.0
  3
A$C3E356AA6
  1

  0
TEXT
  5
1A9
  8
0
 10
0.0
 20
-0.0000014927904886
 30
0.0
 40
40.0
  1
F1
  0
ENDBLK
  5
1D5
  8
0
  0
BLOCK
  8
0
  2
N-WATTENSCHEIDER
 70
     0
 10
0.0
 20
0.0
 30
0.0
  3
N-WATTENSCHEIDER
  1

  0
POLYLINE
  5
1B2
  8
0
 66
     1
 10
0.0
 20
0.0
 30
0.0
 70
     1
  0
VERTEX
  5
1F7
  8
0
 10
0.0
 20
0.0
 30
0.0
  0
VERTEX
  5
1F8
  8
0
 10
20.0
 20
0.0
 30
0.0
  0
VERTEX
  5
1F9
  8
0
 10
20.0
 20
20.0
 30
0.0
  0
VERTEX
  5
1FA
  8
0
 10
0.0
 20
20.0
 30
0.0
  0
SEQEND
  5
1F6
  8
0
  0
TEXT
  5
1B3
  8
0
 10
2.5060515135076
 20
2.543182377044559
 30
0.0
 40
15.0
  1
W
  0
ENDBLK
  5
1D7
  8
0
  0
BLOCK
  8
0
  2
A$C2EFE46AC
 70
     0
 10
0.0
 20
0.0
 30
0.0
  3
A$C2EFE46AC
  1

  0
INSERT
  5
1B9
  8
0
  2
N-WATTENSCHEIDER
 10
-0.0371082305432537
 20
-0.1111420859476411
 30
0.0
  0
ENDBLK
  5
1D9
  8
0
  0
BLOCK
  8
0
  2
*U5
 70
     1
 10
0.0
 20
0.0
 30
0.0
  3
*U5
  1

  0
SOLID
  5
1F2
  8
0
  6
CONTINUOUS
 10
0.0
 20
125.0
 30
0.0
 11
0.0
 21
150.0
 31
0.0
 12
75.0
 22
125.0
 32
0.0
 13
75.0
 23
125.0
 33
0.0
  0
SOLID
  5
1F3
  8
0
  6
CONTINUOUS
 10
75.0
 20
125.0
 30
0.0
 11
0.0
 21
150.0
 31
0.0
 12
75.0
 22
150.0
 32
0.0
 13
75.0
 23
150.0
 33
0.0
  0
ENDBLK
  5
1F5
  8
0
  0
ENDSEC
  0
SECTION
  2
ENTITIES
  0
LINE
  5
102
  8
0
 10
899.9999999999999
 20
199.9999999999999
 30
0.0
 11
899.9999999999999
 21
-200.0
 31
0.0
  0
LINE
  5
103
  8
0
 10
899.9999999999999
 20
-200.0
 30
0.0
 11
0.0
 21
-200.0
 31
0.0
  0
LINE
  5
104
  8
0
 10
0.0
 20
-200.0
 30
0.0
 11
0.0
 21
200.0
 31
0.0
  0
POLYLINE
  5
109
  8
0
 66
     1
 10
0.0
 20
0.0
 30
0.0
 40
9.0
 41
9.0
  0
VERTEX
  5
1E2
  8
0
 10
214.3960108922702
 20
-12.5
 30
0.0
  0
VERTEX
  5
1E3
  8
0
 10
899.9999999999999
 20
0.0
 30
0.0
  0
SEQEND
  5
1E1
  8
0
  0
TEXT
  5
10D
  8
0
 10
126.1974382174237
 20
133.5925049660165
 30
0.0
 40
50.0
  1
900, 30°
  0
TEXT
  5
10E
  8
0
 10
389.2684879416518
 20
253.7213774668337
 30
0.0
 40
50.0
  1
MaNeb
  0
TEXT
  5
10F
  8
0
 10
310.2974377889423
 20
-149.0691458464307
 30
0.0
 40
50.0
  1
NRE-534
  0
TEXT
  5
110
  8
0
 62
     2
 10
338.4126661388621
 20
-181.5710462066868
 30
0.0
 40
25.0
  1
BK 05/2015
  0
LINE
  5
144
  8
0
 10
0.0
 20
199.9999999999999
 30
0.0
 11
553.583311111111
 21
399.9886938285732
 31
0.0
  0
LINE
  5
145
  8
0
 10
553.583311111111
 20
399.9886938285732
 30
0.0
 11
899.9999999999999
 21
199.9999999999999
 31
0.0
  0
POLYLINE
  5
17E
  8
0
 66
     1
 10
0.0
 20
0.0
 30
0.0
 40
9.0
 41
9.0
  0
VERTEX
  5
1E5
  8
0
 10
0.0
 20
12.5
 30
0.0
  0
VERTEX
  5
1E6
  8
0
 10
214.3960108922702
 20
12.5
 30
0.0
 42
0.2613739820367531
  0
VERTEX
  5
1E7
  8
0
 10
726.7916555555554
 20
299.9943469142868
 30
0.0
 42
9.812087285316236
  0
SEQEND
  5
1E4
  8
0
  0
POLYLINE
  5
18C
  8
0
 66
     1
 10
0.0
 20
0.0
 30
0.0
 40
9.0
 41
9.0
  0
VERTEX
  5
1E9
  8
0
 10
214.3960108922702
 20
-12.5
 30
0.0
  0
VERTEX
  5
1EA
  8
0
 10
0.0
 20
-12.5
 30
0.0
  0
SEQEND
  5
1E8
  8
0
  0
INSERT
  5
19A
  8
0
  2
A$C67EA1BCA
 10
8.771241675289105
 20
26.5708696509594
 30
0.0
  0
TEXT
  5
1A6
  8
0
 10
807.2219809654457
 20
13.22114501938214
 30
0.0
 40
40.0
  1
F1
  0
INSERT
  5
1AC
  8
0
  2
A$C3E356AA6
 10
704.2721317065771
 20
211.8964379305876
 30
0.0
  0
INSERT
  5
1B6
  8
0
  2
N-WATTENSCHEIDER
 10
421.4676799835135
 20
-41.00791139603794
 30
0.0
  0
INSERT
  5
1BC
  8
0
  2
A$C2EFE46AC
 10
421.5047882140568
 20
7.116611819873128
 30
0.0
  0
INSERT
  5
1BD
  8
0
  2
A$C2EFE46AC
 10
507.0021513882657
 20
52.46258288706082
 30
0.0
  0
INSERT
  5
1BE
  8
0
  2
A$C2EFE46AC
 10
475.6085883477359
 20
101.8096690484121
 30
0.0
  0
ENDSEC
  0
EOF
